  0
SECTION
  2
HEADER
  9
$ACADVER
  1
AC1015
  9
$ACADMAINTVER
 70
     6
  9
$DWGCODEPAGE
  3
ANSI_1254
  9
$INSBASE
 10
0.0
 20
0.0
 30
0.0
  9
$EXTMIN
 10
0.0
 20
0.0
 30
0.0
  9
$EXTMAX
 10
279.4
 20
215.9
 30
0.0
  9
$LIMMIN
 10
0.0
 20
0.0
  9
$LIMMAX
 10
279.4
 20
215.9
  9
$ORTHOMODE
 70
     0
  9
$REGENMODE
 70
     1
  9
$FILLMODE
 70
     1
  9
$QTEXTMODE
 70
     0
  9
$MIRRTEXT
 70
     1
  9
$LTSCALE
 40
1.0
  9
$ATTMODE
 70
     1
  9
$TEXTSIZE
 40
3.5
  9
$TRACEWID
 40
1.0
  9
$TEXTSTYLE
  7
Standard
  9
$CLAYER
  8
0
  9
$CELTYPE
  6
ByLayer
  9
$CECOLOR
 62
   256
  9
$CELTSCALE
 40
1.0
  9
$DISPSILH
 70
     0
  9
$DIMSCALE
 40
1.0
  9
$DIMASZ
 40
3.5
  9
$DIMEXO
 40
1.0
  9
$DIMDLI
 40
3.75
  9
$DIMRND
 40
0.0
  9
$DIMDLE
 40
0.0
  9
$DIMEXE
 40
1.0
  9
$DIMTP
 40
0.0
  9
$DIMTM
 40
0.0
  9
$DIMTXT
 40
3.5
  9
$DIMCEN
 40
2.5
  9
$DIMTSZ
 40
0.0
  9
$DIMTOL
 70
     0
  9
$DIMLIM
 70
     0
  9
$DIMTIH
 70
     1
  9
$DIMTOH
 70
     1
  9
$DIMSE1
 70
     0
  9
$DIMSE2
 70
     0
  9
$DIMTAD
 70
     1
  9
$DIMZIN
 70
     0
  9
$DIMBLK
  1

  9
$DIMASO
 70
     1
  9
$DIMSHO
 70
     1
  9
$DIMPOST
  1

  9
$DIMAPOST
  1

  9
$DIMALT
 70
     0
  9
$DIMALTD
 70
     3
  9
$DIMALTF
 40
0.0393700787
  9
$DIMLFAC
 40
1.0
  9
$DIMTOFL
 70
     1
  9
$DIMTVP
 40
0.0
  9
$DIMTIX
 70
     0
  9
$DIMSOXD
 70
     0
  9
$DIMSAH
 70
     0
  9
$DIMBLK1
  1

  9
$DIMBLK2
  1

  9
$DIMSTYLE
  2
ISO-25
  9
$DIMCLRD
 70
     0
  9
$DIMCLRE
 70
     0
  9
$DIMCLRT
 70
     0
  9
$DIMTFAC
 40
1.0
  9
$DIMGAP
 40
1.524
  9
$DIMJUST
 70
     0
  9
$DIMSD1
 70
     0
  9
$DIMSD2
 70
     0
  9
$DIMTOLJ
 70
     0
  9
$DIMTZIN
 70
     0
  9
$DIMALTZ
 70
     0
  9
$DIMALTTZ
 70
     0
  9
$DIMUPT
 70
     0
  9
$DIMDEC
 70
     2
  9
$DIMTDEC
 70
     2
  9
$DIMALTU
 70
     2
  9
$DIMALTTD
 70
     3
  9
$DIMTXSTY
  7
Standard
  9
$DIMAUNIT
 70
     0
  9
$DIMADEC
 70
     2
  9
$DIMALTRND
 40
0.0
  9
$DIMAZIN
 70
     0
  9
$DIMDSEP
 70
    44
  9
$DIMATFIT
 70
     3
  9
$DIMFRAC
 70
     0
  9
$DIMLDRBLK
  1

  9
$DIMLUNIT
 70
     2
  9
$DIMLWD
 70
    -2
  9
$DIMLWE
 70
    -2
  9
$DIMTMOVE
 70
     0
  9
$LUNITS
 70
     2
  9
$LUPREC
 70
     2
  9
$SKETCHINC
 40
1.0
  9
$FILLETRAD
 40
10.0
  9
$AUNITS
 70
     0
  9
$AUPREC
 70
     2
  9
$MENU
  1
.
  9
$ELEVATION
 40
0.0
  9
$PELEVATION
 40
0.0
  9
$THICKNESS
 40
0.0
  9
$LIMCHECK
 70
     0
  9
$CHAMFERA
 40
0.0
  9
$CHAMFERB
 40
0.0
  9
$CHAMFERC
 40
0.0
  9
$CHAMFERD
 40
0.0
  9
$SKPOLY
 70
     0
  9
$TDCREATE
 40
2460346.670699294
  9
$TDUCREATE
 40
2460346.545699294
  9
$TDUPDATE
 40
2460346.670699572
  9
$TDUUPDATE
 40
2460346.545699572
  9
$TDINDWG
 40
0.0000000116
  9
$TDUSRTIMER
 40
0.0000000116
  9
$USRTIMER
 70
     1
  9
$ANGBASE
 50
0.0
  9
$ANGDIR
 70
     0
  9
$PDMODE
 70
     0
  9
$PDSIZE
 40
-1.0
  9
$PLINEWID
 40
0.0
  9
$SPLFRAME
 70
     0
  9
$SPLINETYPE
 70
     6
  9
$SPLINESEGS
 70
     8
  9
$HANDSEED
  5
12D
  9
$SURFTAB1
 70
     6
  9
$SURFTAB2
 70
     6
  9
$SURFTYPE
 70
     6
  9
$SURFU
 70
     6
  9
$SURFV
 70
     6
  9
$UCSBASE
  2

  9
$UCSNAME
  2

  9
$UCSORG
 10
0.0
 20
0.0
 30
0.0
  9
$UCSXDIR
 10
1.0
 20
0.0
 30
0.0
  9
$UCSYDIR
 10
0.0
 20
1.0
 30
0.0
  9
$UCSORTHOREF
  2

  9
$UCSORTHOVIEW
 70
     0
  9
$UCSORGTOP
 10
0.0
 20
0.0
 30
0.0
  9
$UCSORGBOTTOM
 10
0.0
 20
0.0
 30
0.0
  9
$UCSORGLEFT
 10
0.0
 20
0.0
 30
0.0
  9
$UCSORGRIGHT
 10
0.0
 20
0.0
 30
0.0
  9
$UCSORGFRONT
 10
0.0
 20
0.0
 30
0.0
  9
$UCSORGBACK
 10
0.0
 20
0.0
 30
0.0
  9
$PUCSBASE
  2

  9
$PUCSNAME
  2

  9
$PUCSORG
 10
0.0
 20
0.0
 30
0.0
  9
$PUCSXDIR
 10
1.0
 20
0.0
 30
0.0
  9
$PUCSYDIR
 10
0.0
 20
1.0
 30
0.0
  9
$PUCSORTHOREF
  2

  9
$PUCSORTHOVIEW
 70
     0
  9
$PUCSORGTOP
 10
0.0
 20
0.0
 30
0.0
  9
$PUCSORGBOTTOM
 10
0.0
 20
0.0
 30
0.0
  9
$PUCSORGLEFT
 10
0.0
 20
0.0
 30
0.0
  9
$PUCSORGRIGHT
 10
0.0
 20
0.0
 30
0.0
  9
$PUCSORGFRONT
 10
0.0
 20
0.0
 30
0.0
  9
$PUCSORGBACK
 10
0.0
 20
0.0
 30
0.0
  9
$USERI1
 70
     0
  9
$USERI2
 70
     0
  9
$USERI3
 70
     0
  9
$USERI4
 70
     0
  9
$USERI5
 70
     0
  9
$USERR1
 40
0.0
  9
$USERR2
 40
0.0
  9
$USERR3
 40
0.0
  9
$USERR4
 40
0.0
  9
$USERR5
 40
0.0
  9
$WORLDVIEW
 70
     1
  9
$SHADEDGE
 70
     3
  9
$SHADEDIF
 70
    70
  9
$TILEMODE
 70
     1
  9
$MAXACTVP
 70
    64
  9
$PINSBASE
 10
0.0
 20
0.0
 30
0.0
  9
$PLIMCHECK
 70
     0
  9
$PEXTMIN
 10
1.0000000000E+20
 20
1.0000000000E+20
 30
1.0000000000E+20
  9
$PEXTMAX
 10
-1.0000000000E+20
 20
-1.0000000000E+20
 30
-1.0000000000E+20
  9
$PLIMMIN
 10
0.0
 20
0.0
  9
$PLIMMAX
 10
420.0
 20
297.0
  9
$UNITMODE
 70
     0
  9
$VISRETAIN
 70
     1
  9
$PLINEGEN
 70
     0
  9
$PSLTSCALE
 70
     1
  9
$TREEDEPTH
 70
  3020
  9
$CMLSTYLE
  2
Standard
  9
$CMLJUST
 70
     0
  9
$CMLSCALE
 40
20.0
  9
$PROXYGRAPHICS
 70
     1
  9
$MEASUREMENT
 70
     1
  9
$CELWEIGHT
370
    -1
  9
$ENDCAPS
280
     0
  9
$JOINSTYLE
280
     0
  9
$LWDISPLAY
290
     1
  9
$INSUNITS
 70
     4
  9
$HYPERLINKBASE
  1

  9
$STYLESHEET
  1

  9
$XEDIT
290
     1
  9
$CEPSNTYPE
380
     0
  9
$PSTYLEMODE
290
     1
  9
$FINGERPRINTGUID
  2
{dcbdf96e-fc2a-4776-86f2-f2f2efed1881}
  9
$VERSIONGUID
  2
{FAEB1C32-E019-11D5-929B-00C0DF256EC4}
  9
$EXTNAMES
290
     1
  9
$PSVPSCALE
 40
0.0
  9
$OLESTARTUP
290
     0
  0
ENDSEC
  0
SECTION
  2
CLASSES
  0
CLASS
  1
ACDBDICTIONARYWDFLT
  2
AcDbDictionaryWithDefault
  3
ObjectDBX Classes
 90
        0
280
     0
281
     0
  0
CLASS
  1
VISUALSTYLE
  2
AcDbVisualStyle
  3
ObjectDBX Classes
 90
     4095
280
     0
281
     0
  0
CLASS
  1
MATERIAL
  2
AcDbMaterial
  3
ObjectDBX Classes
 90
     1153
280
     0
281
     0
  0
CLASS
  1
SCALE
  2
AcDbScale
  3
ObjectDBX Classes
 90
     1153
280
     0
281
     0
  0
CLASS
  1
TABLESTYLE
  2
AcDbTableStyle
  3
ObjectDBX Classes
 90
     4095
280
     0
281
     0
  0
CLASS
  1
MLEADERSTYLE
  2
AcDbMLeaderStyle
  3
ACDB_MLEADERSTYLE_CLASS
 90
     4095
280
     0
281
     0
  0
CLASS
  1
SUN
  2
AcDbSun
  3
SCENEOE
 90
     1153
280
     0
281
     0
  0
CLASS
  1
ACDBPLACEHOLDER
  2
AcDbPlaceHolder
  3
ObjectDBX Classes
 90
        0
280
     0
281
     0
  0
CLASS
  1
LAYOUT
  2
AcDbLayout
  3
ObjectDBX Classes
 90
        0
280
     0
281
     0
  0
ENDSEC
  0
SECTION
  2
TABLES
  0
TABLE
  2
VPORT
  5
8
330
0
100
AcDbSymbolTable
 70
     1
  0
VPORT
  5
29
330
8
100
AcDbSymbolTableRecord
100
AcDbViewportTableRecord
  2
*Active
 70
     0
 10
0.0
 20
0.0
 11
1.0
 21
1.0
 12
139.7
 22
107.95
 13
0.0
 23
0.0
 14
10.0
 24
10.0
 15
10.0
 25
10.0
 16
0.0
 26
0.0
 36
1.0
 17
0.0
 27
0.0
 37
0.0
 40
215.9
 41
1.2941176471
 42
50.0
 43
0.0
 44
0.0
 50
0.0
 51
0.0
 71
     0
 72
  2000
 73
     1
 74
     3
 75
     0
 76
     0
 77
     0
 78
     0
281
     0
 65
     1
110
0.0
120
0.0
130
0.0
111
1.0
121
0.0
131
0.0
112
0.0
122
1.0
132
0.0
 79
     0
146
0.0
  0
ENDTAB
  0
TABLE
  2
LTYPE
  5
5
330
0
100
AcDbSymbolTable
 70
     6
  0
LTYPE
  5
14
330
5
100
AcDbSymbolTableRecord
100
AcDbLinetypeTableRecord
  2
ByBlock
 70
     0
  3

 72
    65
 73
     0
 40
0.0
  0
LTYPE
  5
15
330
5
100
AcDbSymbolTableRecord
100
AcDbLinetypeTableRecord
  2
ByLayer
 70
     0
  3

 72
    65
 73
     0
 40
0.0
  0
LTYPE
  5
16
330
5
100
AcDbSymbolTableRecord
100
AcDbLinetypeTableRecord
  2
Continuous
 70
     0
  3
Solid line
 72
    65
 73
     0
 40
0.0
  0
LTYPE
  5
6E
330
5
100
AcDbSymbolTableRecord
100
AcDbLinetypeTableRecord
  2
HIDDEN
 70
     0
  3
Hidden __ __ __ __ __ __ __ __ __ __ __ __ __ __
 72
    65
 73
     2
 40
1.905
 49
1.27
 74
     0
 49
-0.635
 74
     0
  0
LTYPE
  5
6F
330
5
100
AcDbSymbolTableRecord
100
AcDbLinetypeTableRecord
  2
PHANTOM
 70
     0
  3
Phantom ______  __  __  ______  __  __  ______
 72
    65
 73
     6
 40
12.7
 49
6.35
 74
     0
 49
-1.27
 74
     0
 49
1.27
 74
     0
 49
-1.27
 74
     0
 49
1.27
 74
     0
 49
-1.27
 74
     0
  0
LTYPE
  5
70
330
5
100
AcDbSymbolTableRecord
100
AcDbLinetypeTableRecord
  2
CENTER
 70
     0
  3
Center ____ _ ____ _ ____ _ ____ _ ____ _ ____
 72
    65
 73
     4
 40
10.16
 49
6.35
 74
     0
 49
-1.27
 74
     0
 49
1.27
 74
     0
 49
-1.27
 74
     0
  0
LTYPE
  5
71
330
5
100
AcDbSymbolTableRecord
100
AcDbLinetypeTableRecord
  2
CENTERX2
 70
     0
  3
Center (2x) ________  __  ________  __  _____
 72
    65
 73
     4
 40
20.32
 49
12.7
 74
     0
 49
-2.54
 74
     0
 49
2.54
 74
     0
 49
-2.54
 74
     0
  0
LTYPE
  5
72
330
5
100
AcDbSymbolTableRecord
100
AcDbLinetypeTableRecord
  2
DOT2
 70
     0
  3
Dot (.5x) ........................................
 72
    65
 73
     2
 40
0.635
 49
0.0
 74
     0
 49
-0.635
 74
     0
  0
ENDTAB
  0
TABLE
  2
LAYER
  5
2
330
0
100
AcDbSymbolTable
 70
    17
  0
LAYER
  5
10
330
2
100
AcDbSymbolTableRecord
100
AcDbLayerTableRecord
  2
0
 70
     0
 62
     7
  6
Continuous
370
    -3
390
F
  0
LAYER
  5
73
330
2
100
AcDbSymbolTableRecord
100
AcDbLayerTableRecord
  2
FORMAT
 70
     0
 62
     7
  6
Continuous
370
    -3
390
F
  0
LAYER
  5
74
330
2
100
AcDbSymbolTableRecord
100
AcDbLayerTableRecord
  2
YARDIMCI_GEOMETRI
 70
     0
 62
    -6
  6
Continuous
290
     0
370
    -3
390
F
  0
LAYER
  5
75
330
2
100
AcDbSymbolTableRecord
100
AcDbLayerTableRecord
  2
SAYFA_CERCEVESI
 70
     0
 62
     7
  6
Continuous
370
    25
390
F
  0
LAYER
  5
76
330
2
100
AcDbSymbolTableRecord
100
AcDbLayerTableRecord
  2
ANTET
 70
     0
 62
     7
  6
Continuous
370
    -3
390
F
  0
LAYER
  5
77
330
2
100
AcDbSymbolTableRecord
100
AcDbLayerTableRecord
  2
OLCU
 70
     0
 62
   150
  6
Continuous
370
    -3
390
F
  0
LAYER
  5
78
330
2
100
AcDbSymbolTableRecord
100
AcDbLayerTableRecord
  2
METIN
 70
     0
 62
    96
  6
Continuous
370
    -3
390
F
  0
LAYER
  5
79
330
2
100
AcDbSymbolTableRecord
100
AcDbLayerTableRecord
  2
BALON
 70
     0
 62
     5
  6
Continuous
370
    -3
390
F
  0
LAYER
  5
7A
330
2
100
AcDbSymbolTableRecord
100
AcDbLayerTableRecord
  2
VURGU
 70
     0
 62
     7
  6
Continuous
370
    -3
390
F
  0
LAYER
  5
7B
330
2
100
AcDbSymbolTableRecord
100
AcDbLayerTableRecord
  2
SILIK
 70
     0
 62
     7
  6
Continuous
370
    -3
390
F
  0
LAYER
  5
7C
330
2
100
AcDbSymbolTableRecord
100
AcDbLayerTableRecord
  2
MODEL
 70
     0
 62
     7
  6
Continuous
370
    -3
390
F
  0
LAYER
  5
7D
330
2
100
AcDbSymbolTableRecord
100
AcDbLayerTableRecord
  2
DETAYLANDıRMA
 70
     0
 62
   190
  6
Continuous
370
    -3
390
F
  0
LAYER
  5
7E
330
2
100
AcDbSymbolTableRecord
100
AcDbLayerTableRecord
  2
TOLERANS
 70
     0
 62
   230
  6
Continuous
370
    -3
390
F
  0
LAYER
  5
7F
330
2
100
AcDbSymbolTableRecord
100
AcDbLayerTableRecord
  2
MERKEZ_CIZGILERI
 70
     0
 62
    30
  6
Continuous
370
    -3
390
F
  0
LAYER
  5
80
330
2
100
AcDbSymbolTableRecord
100
AcDbLayerTableRecord
  2
KESIT-DETAY_CIZGILERI
 70
     0
 62
     7
  6
Continuous
370
    -3
390
F
  0
LAYER
  5
81
330
2
100
AcDbSymbolTableRecord
100
AcDbLayerTableRecord
  2
\U+041E\U+0421\U+0415\U+0412\U+042B\U+0415
 70
     0
 62
     7
  6
Continuous
370
    -3
390
F
  0
LAYER
  5
82
330
2
100
AcDbSymbolTableRecord
100
AcDbLayerTableRecord
  2
\U+0412\U+041E\U+0414\U+042F\U+041D\U+042B\U+0415_\U+0417\U+041D\U+0410\U+041A\U+0418
 70
     0
 62
    11
  6
Continuous
370
    -3
390
F
  0
ENDTAB
  0
TABLE
  2
STYLE
  5
3
330
0
100
AcDbSymbolTable
 70
     1
  0
STYLE
  5
11
330
3
100
AcDbSymbolTableRecord
100
AcDbTextStyleTableRecord
  2
Standard
 70
     0
 40
0.0
 41
1.0
 50
0.0
 71
     0
 42
3.5
  3
txt
  4

  0
ENDTAB
  0
TABLE
  2
VIEW
  5
6
330
0
100
AcDbSymbolTable
 70
     0
  0
ENDTAB
  0
TABLE
  2
UCS
  5
7
330
0
100
AcDbSymbolTable
 70
     0
  0
ENDTAB
  0
TABLE
  2
APPID
  5
9
330
0
100
AcDbSymbolTable
 70
     1
  0
APPID
  5
12
330
9
100
AcDbSymbolTableRecord
100
AcDbRegAppTableRecord
  2
ACAD
 70
     0
  0
ENDTAB
  0
TABLE
  2
DIMSTYLE
  5
A
330
0
100
AcDbSymbolTable
 70
     1
100
AcDbDimStyleTable
  0
DIMSTYLE
105
27
330
A
100
AcDbSymbolTableRecord
100
AcDbDimStyleTableRecord
  2
ISO-25
 70
     0
 41
2.5
 42
0.625
 43
3.75
 44
1.25
 73
     0
 74
     0
 77
     1
 78
     8
140
2.5
141
2.5
143
0.0393700787
147
0.625
171
     3
172
     1
178
     0
271
     2
272
     2
274
     3
278
    44
283
     0
284
     8
340
11
  0
ENDTAB
  0
TABLE
  2
BLOCK_RECORD
  5
1
330
0
100
AcDbSymbolTable
 70
     4
  0
BLOCK_RECORD
  5
1F
330
1
100
AcDbSymbolTableRecord
100
AcDbBlockTableRecord
  2
*Model_Space
340
22
  0
BLOCK_RECORD
  5
1B
330
1
100
AcDbSymbolTableRecord
100
AcDbBlockTableRecord
  2
*Paper_Space
340
1E
  0
BLOCK_RECORD
  5
23
330
1
100
AcDbSymbolTableRecord
100
AcDbBlockTableRecord
  2
*Paper_Space0
340
26
  0
BLOCK_RECORD
  5
8E
330
1
100
AcDbSymbolTableRecord
100
AcDbBlockTableRecord
  2
SW_CENTERMARKSYMBOL_0
340
0
102
{BLKREFS
331
99
102
}
  0
BLOCK_RECORD
  5
C8
330
1
100
AcDbSymbolTableRecord
100
AcDbBlockTableRecord
  2
SW_CENTERMARKSYMBOL_1
340
0
102
{BLKREFS
331
D3
102
}
  0
BLOCK_RECORD
  5
D4
330
1
100
AcDbSymbolTableRecord
100
AcDbBlockTableRecord
  2
SW_CENTERMARKSYMBOL_2
340
0
102
{BLKREFS
331
DF
102
}
  0
ENDTAB
  0
ENDSEC
  0
SECTION
  2
BLOCKS
  0
BLOCK
  5
20
330
1F
100
AcDbEntity
  8
0
100
AcDbBlockBegin
  2
*Model_Space
 70
     0
 10
0.0
 20
0.0
 30
0.0
  3
*Model_Space
  1

  0
ENDBLK
  5
21
330
1F
100
AcDbEntity
  8
0
100
AcDbBlockEnd
  0
BLOCK
  5
1C
330
1B
100
AcDbEntity
 67
     1
  8
0
100
AcDbBlockBegin
  2
*Paper_Space
 70
     0
 10
0.0
 20
0.0
 30
0.0
  3
*Paper_Space
  1

  0
ENDBLK
  5
1D
330
1B
100
AcDbEntity
 67
     1
  8
0
100
AcDbBlockEnd
  0
BLOCK
  5
24
330
23
100
AcDbEntity
  8
0
100
AcDbBlockBegin
  2
*Paper_Space0
 70
     0
 10
0.0
 20
0.0
 30
0.0
  3
*Paper_Space0
  1

  0
ENDBLK
  5
25
330
23
100
AcDbEntity
  8
0
100
AcDbBlockEnd
  0
BLOCK
  5
8F
330
8E
100
AcDbEntity
  8
0
100
AcDbBlockBegin
  2
SW_CENTERMARKSYMBOL_0
 70
     0
 10
0.0
 20
0.0
 30
0.0
  3
SW_CENTERMARKSYMBOL_0
  1

  0
LINE
  5
91
330
8E
100
AcDbEntity
  8
FORMAT
 62
     0
100
AcDbLine
 10
0.0
 20
0.0
 30
0.0
 11
0.0
 21
2.5
 31
0.0
  0
LINE
  5
92
330
8E
100
AcDbEntity
  8
FORMAT
 62
     0
100
AcDbLine
 10
0.0
 20
0.0
 30
0.0
 11
-2.5
 21
0.0
 31
0.0
  0
LINE
  5
93
330
8E
100
AcDbEntity
  8
FORMAT
 62
     0
100
AcDbLine
 10
0.0
 20
0.0
 30
0.0
 11
0.0
 21
-2.5
 31
0.0
  0
LINE
  5
94
330
8E
100
AcDbEntity
  8
FORMAT
 62
     0
100
AcDbLine
 10
0.0
 20
0.0
 30
0.0
 11
2.5
 21
0.0
 31
0.0
  0
LINE
  5
95
330
8E
100
AcDbEntity
  8
FORMAT
 62
     0
100
AcDbLine
 10
0.0
 20
5.0
 30
0.0
 11
0.0
 21
24.0
 31
0.0
  0
LINE
  5
96
330
8E
100
AcDbEntity
  8
FORMAT
 62
     0
100
AcDbLine
 10
-5.0
 20
0.0
 30
0.0
 11
-24.0
 21
0.0
 31
0.0
  0
LINE
  5
97
330
8E
100
AcDbEntity
  8
FORMAT
 62
     0
100
AcDbLine
 10
0.0
 20
-5.0
 30
0.0
 11
0.0
 21
-24.0
 31
0.0
  0
LINE
  5
98
330
8E
100
AcDbEntity
  8
FORMAT
 62
     0
100
AcDbLine
 10
5.0
 20
0.0
 30
0.0
 11
24.0
 21
0.0
 31
0.0
  0
ENDBLK
  5
90
330
8E
100
AcDbEntity
  8
0
100
AcDbBlockEnd
  0
BLOCK
  5
C9
330
C8
100
AcDbEntity
  8
0
100
AcDbBlockBegin
  2
SW_CENTERMARKSYMBOL_1
 70
     0
 10
0.0
 20
0.0
 30
0.0
  3
SW_CENTERMARKSYMBOL_1
  1

  0
LINE
  5
CB
330
C8
100
AcDbEntity
  8
FORMAT
 62
     0
100
AcDbLine
 10
0.0
 20
0.0
 30
0.0
 11
0.0
 21
2.5
 31
0.0
  0
LINE
  5
CC
330
C8
100
AcDbEntity
  8
FORMAT
 62
     0
100
AcDbLine
 10
0.0
 20
0.0
 30
0.0
 11
-2.5
 21
0.0
 31
0.0
  0
LINE
  5
CD
330
C8
100
AcDbEntity
  8
FORMAT
 62
     0
100
AcDbLine
 10
0.0
 20
0.0
 30
0.0
 11
0.0
 21
-2.5
 31
0.0
  0
LINE
  5
CE
330
C8
100
AcDbEntity
  8
FORMAT
 62
     0
100
AcDbLine
 10
0.0
 20
0.0
 30
0.0
 11
2.5
 21
0.0
 31
0.0
  0
LINE
  5
CF
330
C8
100
AcDbEntity
  8
FORMAT
 62
     0
100
AcDbLine
 10
0.0
 20
5.0
 30
0.0
 11
0.0
 21
9.5
 31
0.0
  0
LINE
  5
D0
330
C8
100
AcDbEntity
  8
FORMAT
 62
     0
100
AcDbLine
 10
-5.0
 20
0.0
 30
0.0
 11
-9.5
 21
0.0
 31
0.0
  0
LINE
  5
D1
330
C8
100
AcDbEntity
  8
FORMAT
 62
     0
100
AcDbLine
 10
0.0
 20
-5.0
 30
0.0
 11
0.0
 21
-9.5
 31
0.0
  0
LINE
  5
D2
330
C8
100
AcDbEntity
  8
FORMAT
 62
     0
100
AcDbLine
 10
5.0
 20
0.0
 30
0.0
 11
9.5
 21
0.0
 31
0.0
  0
ENDBLK
  5
CA
330
C8
100
AcDbEntity
  8
0
100
AcDbBlockEnd
  0
BLOCK
  5
D5
330
D4
100
AcDbEntity
  8
0
100
AcDbBlockBegin
  2
SW_CENTERMARKSYMBOL_2
 70
     0
 10
0.0
 20
0.0
 30
0.0
  3
SW_CENTERMARKSYMBOL_2
  1

  0
LINE
  5
D7
330
D4
100
AcDbEntity
  8
FORMAT
 62
     0
100
AcDbLine
 10
0.0
 20
0.0
 30
0.0
 11
0.0
 21
2.5
 31
0.0
  0
LINE
  5
D8
330
D4
100
AcDbEntity
  8
FORMAT
 62
     0
100
AcDbLine
 10
0.0
 20
0.0
 30
0.0
 11
-2.5
 21
0.0
 31
0.0
  0
LINE
  5
D9
330
D4
100
AcDbEntity
  8
FORMAT
 62
     0
100
AcDbLine
 10
0.0
 20
0.0
 30
0.0
 11
0.0
 21
-2.5
 31
0.0
  0
LINE
  5
DA
330
D4
100
AcDbEntity
  8
FORMAT
 62
     0
100
AcDbLine
 10
0.0
 20
0.0
 30
0.0
 11
2.5
 21
0.0
 31
0.0
  0
LINE
  5
DB
330
D4
100
AcDbEntity
  8
FORMAT
 62
     0
100
AcDbLine
 10
0.0
 20
5.0
 30
0.0
 11
0.0
 21
9.5
 31
0.0
  0
LINE
  5
DC
330
D4
100
AcDbEntity
  8
FORMAT
 62
     0
100
AcDbLine
 10
-5.0
 20
0.0
 30
0.0
 11
-9.5
 21
0.0
 31
0.0
  0
LINE
  5
DD
330
D4
100
AcDbEntity
  8
FORMAT
 62
     0
100
AcDbLine
 10
0.0
 20
-5.0
 30
0.0
 11
0.0
 21
-9.5
 31
0.0
  0
LINE
  5
DE
330
D4
100
AcDbEntity
  8
FORMAT
 62
     0
100
AcDbLine
 10
5.0
 20
0.0
 30
0.0
 11
9.5
 21
0.0
 31
0.0
  0
ENDBLK
  5
D6
330
D4
100
AcDbEntity
  8
0
100
AcDbBlockEnd
  0
ENDSEC
  0
SECTION
  2
ENTITIES
  0
LINE
  5
83
330
1F
100
AcDbEntity
  8
0
  6
Continuous
 62
     7
370
    25
100
AcDbLine
 10
129.1701403815
 20
97.3382215701
 30
0.0
 11
129.1701403815
 21
68.6754170122
 31
0.0
  0
LINE
  5
84
330
1F
100
AcDbEntity
  8
0
  6
Continuous
 62
     7
370
    25
100
AcDbLine
 10
143.1701403815
 20
68.6754170122
 30
0.0
 11
143.1701403815
 21
97.3388303697
 31
0.0
  0
LINE
  5
85
330
1F
100
AcDbEntity
  8
0
  6
Continuous
 62
     7
370
    25
100
AcDbLine
 10
129.1701403815
 20
97.346865662
 30
0.0
 11
129.1701403815
 21
97.3382215701
 31
0.0
  0
LINE
  5
86
330
1F
100
AcDbEntity
  8
0
  6
Continuous
 62
     7
370
    25
100
AcDbLine
 10
143.1701403815
 20
97.3388303697
 30
0.0
 11
143.1701403815
 21
97.346865662
 31
0.0
  0
CIRCLE
  5
87
330
1F
100
AcDbEntity
  8
0
  6
Continuous
 62
     7
370
    25
100
AcDbCircle
 10
136.1701403815
 20
117.6754170122
 30
0.0
 40
21.49999999999999
  0
CIRCLE
  5
88
330
1F
100
AcDbEntity
  8
0
  6
Continuous
 62
     7
370
    25
100
AcDbCircle
 10
136.1701403815
 20
117.6754170122
 30
0.0
 40
15.99999999999999
  0
LINE
  5
89
330
1F
100
AcDbEntity
  8
0
  6
Continuous
 62
     7
370
    25
100
AcDbLine
 10
136.1701403815
 20
68.6754170122
 30
0.0
 11
143.1701403815
 21
68.6754170122
 31
0.0
  0
LINE
  5
8A
330
1F
100
AcDbEntity
  8
0
  6
Continuous
 62
     7
370
    25
100
AcDbLine
 10
129.1701403815
 20
68.6754170122
 30
0.0
 11
136.1701403815
 21
68.6754170122
 31
0.0
  0
CIRCLE
  5
8B
330
1F
100
AcDbEntity
  8
0
  6
Continuous
 62
     7
370
    25
100
AcDbCircle
 10
136.1701403815
 20
117.6754170122
 30
0.0
 40
15.16247638743818
  0
CIRCLE
  5
8C
330
1F
100
AcDbEntity
  8
0
  6
Continuous
 62
     7
370
    25
100
AcDbCircle
 10
136.1701403815
 20
117.6754170122
 30
0.0
 40
10.8375236125618
  0
CIRCLE
  5
8D
330
1F
100
AcDbEntity
  8
0
  6
Continuous
 62
     7
370
    25
100
AcDbCircle
 10
136.1701403815
 20
117.6754170122
 30
0.0
 40
10.00000000000001
  0
INSERT
  5
99
330
1F
100
AcDbEntity
  8
FORMAT
 62
     7
100
AcDbBlockReference
  2
SW_CENTERMARKSYMBOL_0
 10
136.1701403815
 20
117.6754170122
 30
0.0
  0
ARC
  5
9A
330
1F
100
AcDbEntity
  8
0
  6
Continuous
 62
     7
370
    25
100
AcDbCircle
 10
51.5061486531
 20
137.1754170122
 30
0.0
 40
1.999999999999996
100
AcDbArc
 50
35.537677792
 51
90.0
  0
ARC
  5
9B
330
1F
100
AcDbEntity
  8
0
  6
Continuous
 62
     7
370
    25
100
AcDbCircle
 10
51.5061486531
 20
98.1754170122
 30
0.0
 40
2.000000000000004
100
AcDbArc
 50
270.0
 51
324.462322208
  0
LINE
  5
9C
330
1F
100
AcDbEntity
  8
0
  6
Continuous
 62
     7
370
    25
100
AcDbLine
 10
51.5061486531
 20
139.1754170122
 30
0.0
 11
4.5353844437
 21
139.1754170122
 31
0.0
  0
LINE
  5
9D
330
1F
100
AcDbEntity
  8
0
  6
Continuous
 62
     7
370
    25
100
AcDbLine
 10
19.5321887571
 20
96.1754170122
 30
0.0
 11
51.5061486531
 21
96.1754170122
 31
0.0
  0
LINE
  5
9E
330
1F
100
AcDbEntity
  8
0
  6
Continuous
 62
     7
370
    25
100
AcDbLine
 10
4.5353844437
 20
96.1754170122
 30
0.0
 11
5.5353844437
 21
96.1754170122
 31
0.0
  0
LINE
  5
9F
330
1F
100
AcDbEntity
  8
0
  6
Continuous
 62
     7
370
    25
100
AcDbLine
 10
53.1336155955
 20
97.0129406248
 30
0.0
 11
56.9371532919
 21
102.3378933997
 31
0.0
  0
LINE
  5
A0
330
1F
100
AcDbEntity
  8
0
  6
Continuous
 62
     7
370
    25
100
AcDbLine
 10
56.9371532919
 20
133.0129406248
 30
0.0
 11
53.1336155955
 21
138.3378933997
 31
0.0
  0
ARC
  5
A1
330
1F
100
AcDbEntity
  8
0
  6
Continuous
 62
     7
370
    25
100
AcDbCircle
 10
58.5646202343
 20
134.1754170122
 30
0.0
 40
2.0
100
AcDbArc
 50
215.537677792
 51
270.0
  0
ARC
  5
A2
330
1F
100
AcDbEntity
  8
0
  6
Continuous
 62
     7
370
    25
100
AcDbCircle
 10
58.5646202343
 20
101.1754170122
 30
0.0
 40
2.000000000000004
100
AcDbArc
 50
90.0
 51
144.462322208
  0
LINE
  5
A3
330
1F
100
AcDbEntity
  8
0
  6
Continuous
 62
     7
370
    25
100
AcDbLine
 10
89.5353844437
 20
132.1754170122
 30
0.0
 11
58.5646202343
 21
132.1754170122
 31
0.0
  0
LINE
  5
A4
330
1F
100
AcDbEntity
  8
0
  6
Continuous
 62
     7
370
    25
100
AcDbLine
 10
88.5132195595
 20
103.1754170122
 30
0.0
 11
89.5353844437
 21
103.1754170122
 31
0.0
  0
LINE
  5
A5
330
1F
100
AcDbEntity
  8
0
  6
Continuous
 62
     7
370
    25
100
AcDbLine
 10
58.5646202343
 20
103.1754170122
 30
0.0
 11
74.5353844437
 21
103.1754170122
 31
0.0
  0
LINE
  5
A6
330
1F
100
AcDbEntity
  8
0
  6
Continuous
 62
     7
370
    25
100
AcDbLine
 10
74.5353844437
 20
103.1754170122
 30
0.0
 11
74.5353844437
 21
82.6754170122
 31
0.0
  0
LINE
  5
A7
330
1F
100
AcDbEntity
  8
0
  6
Continuous
 62
     7
370
    25
100
AcDbLine
 10
88.5353844437
 20
82.6754170122
 30
0.0
 11
88.5353844437
 21
103.186093514
 31
0.0
  0
LINE
  5
A8
330
1F
100
AcDbEntity
  8
0
  6
Continuous
 62
     7
370
    25
100
AcDbLine
 10
5.5353844437
 20
96.1754170122
 30
0.0
 11
5.5353844437
 21
68.6754170122
 31
0.0
  0
LINE
  5
A9
330
1F
100
AcDbEntity
  8
0
  6
Continuous
 62
     7
370
    25
100
AcDbLine
 10
19.5353844437
 20
68.6754170122
 30
0.0
 11
19.5353844437
 21
96.1764466839
 31
0.0
  0
LINE
  5
AA
330
1F
100
AcDbEntity
  8
0
  6
Continuous
 62
     7
370
    25
100
AcDbLine
 10
4.5353844437
 20
139.1754170122
 30
0.0
 11
4.5353844437
 21
96.1754170122
 31
0.0
  0
SPLINE
  5
AB
330
1F
100
AcDbEntity
  8
0
  6
Continuous
 62
     7
370
    25
100
AcDbSpline
210
0.0
220
0.0
230
1.0
 70
     8
 71
     3
 72
    27
 73
    23
 74
     0
 42
0.00000001
 43
0.00000001
 40
0.0
 40
0.0
 40
0.0
 40
0.0
 40
0.0018447357606318
 40
0.0548609074063398
 40
0.1049632623028934
 40
0.1564516984968714
 40
0.207873129024944
 40
0.2606663066879785
 40
0.3142555819822125
 40
0.3694020653156413
 40
0.4227520639524995
 40
0.4778080799906388
 40
0.5285754964784424
 40
0.5808715898003818
 40
0.6308474705806061
 40
0.6821630471780747
 40
0.7342441765850882
 40
0.7877302674261855
 40
0.8416273560728803
 40
0.8971517941977359
 40
0.9478367197796153
 40
1.0
 40
1.0
 40
1.0
 40
1.0
 10
19.53218875709476
 20
96.17645195577319
 30
0.0
 10
19.53324874832688
 20
96.17610868878215
 30
0.0
 10
19.56477200606247
 20
96.16590021393576
 30
0.0
 10
19.45146477146592
 20
96.20285026559888
 30
0.0
 10
19.18259237327845
 20
96.2885376961601
 30
0.0
 10
18.72697305047748
 20
96.42693448944735
 30
0.0
 10
18.10944952340756
 20
96.60002147043723
 30
0.0
 10
17.33500897425416
 20
96.79340300275629
 30
0.0
 10
16.40895077177661
 20
96.988786522478
 30
0.0
 10
15.36496292942181
 20
97.16047356377258
 30
0.0
 10
14.22436577856184
 20
97.28787438236138
 30
0.0
 10
13.06038445570199
 20
97.35140938340325
 30
0.0
 10
11.8891606499105
 20
97.34727273985871
 30
0.0
 10
10.77398182280273
 20
97.28044585568442
 30
0.0
 10
9.705902577986778
 20
97.15923396034584
 30
0.0
 10
8.715764628941248
 20
96.99820954765818
 30
0.0
 10
7.80665839186858
 20
96.80967512846175
 30
0.0
 10
7.011873608116573
 20
96.613731171579
 30
0.0
 10
6.35362971874906
 20
96.43006725740366
 30
0.0
 10
5.884496856929301
 20
96.2875117679821
 30
0.0
 10
5.590006221705648
 20
96.19331139067215
 30
0.0
 10
5.553765346840961
 20
96.18143869166681
 30
0.0
 10
5.53538444368129
 20
96.17541701223782
 30
0.0
  0
LINE
  5
AC
330
1F
100
AcDbEntity
  8
0
  6
Continuous
 62
     7
370
    25
100
AcDbLine
 10
89.5353844437
 20
132.1754170122
 30
0.0
 11
89.5353844437
 21
103.1754170122
 31
0.0
  0
ARC
  5
AD
330
1F
100
AcDbEntity
  8
0
  6
Continuous
 62
     7
370
    25
100
AcDbCircle
 10
81.5345873273
 20
89.7218458418
 30
0.0
 40
15.16533607419636
100
AcDbArc
 50
62.6019241608
 51
117.4856469047
  0
LINE
  5
AE
330
1F
100
AcDbEntity
  8
0
  6
Continuous
 62
     7
370
    25
100
AcDbLine
 10
74.5353844437
 20
82.6754170122
 30
0.0
 11
88.5353844437
 21
82.6754170122
 31
0.0
  0
LINE
  5
AF
330
1F
100
AcDbEntity
  8
0
  6
Continuous
 62
     7
370
    25
100
AcDbLine
 10
5.5353844437
 20
68.6754170122
 30
0.0
 11
19.5353844437
 21
68.6754170122
 31
0.0
  0
LINE
  5
B0
330
1F
100
AcDbEntity
  8
0
  6
Continuous
 62
     1
370
    25
100
AcDbLine
 10
53.1336155955
 20
138.3378933997
 30
0.0
 11
53.1336155955
 21
97.0129406248
 31
0.0
  0
LINE
  5
B1
330
1F
100
AcDbEntity
  8
0
  6
Continuous
 62
     1
370
    25
100
AcDbLine
 10
51.5061486531
 20
139.1754170122
 30
0.0
 11
51.5061486531
 21
96.1754170122
 31
0.0
  0
LINE
  5
B2
330
1F
100
AcDbEntity
  8
0
  6
Continuous
 62
     1
370
    25
100
AcDbLine
 10
56.9371532919
 20
133.0129406248
 30
0.0
 11
56.9371532919
 21
102.3378933997
 31
0.0
  0
LINE
  5
B3
330
1F
100
AcDbEntity
  8
0
  6
Continuous
 62
     1
370
    25
100
AcDbLine
 10
58.5646202343
 20
132.1754170122
 30
0.0
 11
58.5646202343
 21
103.1754170122
 31
0.0
  0
ARC
  5
B4
330
1F
100
AcDbEntity
  8
0
  6
Continuous
 62
     7
370
    25
100
AcDbCircle
 10
155.6701403815
 20
204.5270427664
 30
0.0
 40
2.0
100
AcDbArc
 50
305.537677792
 51
0.0
  0
ARC
  5
B5
330
1F
100
AcDbEntity
  8
0
  6
Continuous
 62
     7
370
    25
100
AcDbCircle
 10
116.6701403815
 20
204.5270427664
 30
0.0
 40
2.0
100
AcDbArc
 50
180.0
 51
234.462322208
  0
LINE
  5
B6
330
1F
100
AcDbEntity
  8
0
  6
Continuous
 62
     7
370
    25
100
AcDbLine
 10
157.6701403815
 20
204.5270427664
 30
0.0
 11
157.6701403815
 21
251.4978069758
 31
0.0
  0
LINE
  5
B7
330
1F
100
AcDbEntity
  8
0
  6
Continuous
 62
     7
370
    25
100
AcDbLine
 10
114.6701403815
 20
251.4978069758
 30
0.0
 11
114.6701403815
 21
204.5270427664
 31
0.0
  0
LINE
  5
B8
330
1F
100
AcDbEntity
  8
0
  6
Continuous
 62
     7
370
    25
100
AcDbLine
 10
115.507663994
 20
202.8995758239
 30
0.0
 11
120.8326167689
 21
199.0960381276
 31
0.0
  0
LINE
  5
B9
330
1F
100
AcDbEntity
  8
0
  6
Continuous
 62
     7
370
    25
100
AcDbLine
 10
151.507663994
 20
199.0960381276
 30
0.0
 11
156.8326167689
 21
202.8995758239
 31
0.0
  0
ARC
  5
BA
330
1F
100
AcDbEntity
  8
0
  6
Continuous
 62
     7
370
    25
100
AcDbCircle
 10
152.6701403815
 20
197.4685711852
 30
0.0
 40
2.000000000000028
100
AcDbArc
 50
125.537677792
 51
180.0
  0
ARC
  5
BB
330
1F
100
AcDbEntity
  8
0
  6
Continuous
 62
     7
370
    25
100
AcDbCircle
 10
119.6701403815
 20
197.4685711852
 30
0.0
 40
2.0
100
AcDbArc
 50
0.0
 51
54.462322208
  0
LINE
  5
BC
330
1F
100
AcDbEntity
  8
0
  6
Continuous
 62
     7
370
    25
100
AcDbLine
 10
150.6701403815
 20
166.4978069758
 30
0.0
 11
150.6701403815
 21
197.4685711852
 31
0.0
  0
LINE
  5
BD
330
1F
100
AcDbEntity
  8
0
  6
Continuous
 62
     7
370
    25
100
AcDbLine
 10
121.6701403815
 20
197.4685711852
 30
0.0
 11
121.6701403815
 21
166.4978069758
 31
0.0
  0
CIRCLE
  5
BE
330
1F
100
AcDbEntity
  8
0
  6
Continuous
 62
     7
370
    25
100
AcDbCircle
 10
136.1701403815
 20
243.4978069758
 30
0.0
 40
6.999999999999972
  0
CIRCLE
  5
BF
330
1F
100
AcDbEntity
  8
0
  6
Continuous
 62
     7
370
    25
100
AcDbCircle
 10
136.1701403815
 20
243.4978069758
 30
0.0
 40
5.0
  0
CIRCLE
  5
C0
330
1F
100
AcDbEntity
  8
0
  6
Continuous
 62
     7
370
    25
100
AcDbCircle
 10
136.1701403815
 20
174.4978069758
 30
0.0
 40
7.000000000000028
  0
CIRCLE
  5
C1
330
1F
100
AcDbEntity
  8
0
  6
Continuous
 62
     7
370
    25
100
AcDbCircle
 10
136.1701403815
 20
174.4978069758
 30
0.0
 40
5.000000000000028
  0
LINE
  5
C2
330
1F
100
AcDbEntity
  8
0
  6
Continuous
 62
     7
370
    25
100
AcDbLine
 10
157.6701403815
 20
251.4978069758
 30
0.0
 11
114.6701403815
 21
251.4978069758
 31
0.0
  0
LINE
  5
C3
330
1F
100
AcDbEntity
  8
0
  6
Continuous
 62
     7
370
    25
100
AcDbLine
 10
150.6701403815
 20
166.4978069758
 30
0.0
 11
121.6701403815
 21
166.4978069758
 31
0.0
  0
LINE
  5
C4
330
1F
100
AcDbEntity
  8
0
  6
Continuous
 62
     1
370
    25
100
AcDbLine
 10
156.8326167689
 20
202.8995758239
 30
0.0
 11
115.507663994
 21
202.8995758239
 31
0.0
  0
LINE
  5
C5
330
1F
100
AcDbEntity
  8
0
  6
Continuous
 62
     1
370
    25
100
AcDbLine
 10
157.6701403815
 20
204.5270427664
 30
0.0
 11
114.6701403815
 21
204.5270427664
 31
0.0
  0
LINE
  5
C6
330
1F
100
AcDbEntity
  8
0
  6
Continuous
 62
     1
370
    25
100
AcDbLine
 10
151.507663994
 20
199.0960381276
 30
0.0
 11
120.8326167689
 21
199.0960381276
 31
0.0
  0
LINE
  5
C7
330
1F
100
AcDbEntity
  8
0
  6
Continuous
 62
     1
370
    25
100
AcDbLine
 10
150.6701403815
 20
197.4685711852
 30
0.0
 11
121.6701403815
 21
197.4685711852
 31
0.0
  0
INSERT
  5
D3
330
1F
100
AcDbEntity
  8
FORMAT
 62
     7
100
AcDbBlockReference
  2
SW_CENTERMARKSYMBOL_1
 10
136.1701403815
 20
174.4978069758
 30
0.0
  0
INSERT
  5
DF
330
1F
100
AcDbEntity
  8
FORMAT
 62
     7
100
AcDbBlockReference
  2
SW_CENTERMARKSYMBOL_2
 10
136.1701403815
 20
243.4978069758
 30
0.0
  0
ARC
  5
E0
330
1F
100
AcDbEntity
  8
0
  6
Continuous
 62
     7
370
    25
100
AcDbCircle
 10
225.8441420789
 20
98.1754170122
 30
0.0
 40
2.000000000000016
100
AcDbArc
 50
215.537677792
 51
270.0
  0
ARC
  5
E1
330
1F
100
AcDbEntity
  8
0
  6
Continuous
 62
     7
370
    25
100
AcDbCircle
 10
225.8441420789
 20
137.1754170122
 30
0.0
 40
2.000000000000008
100
AcDbArc
 50
90.0
 51
144.462322208
  0
LINE
  5
E2
330
1F
100
AcDbEntity
  8
0
  6
Continuous
 62
     7
370
    25
100
AcDbLine
 10
271.8149062883
 20
96.1754170122
 30
0.0
 11
272.8149062883
 21
96.1754170122
 31
0.0
  0
LINE
  5
E3
330
1F
100
AcDbEntity
  8
0
  6
Continuous
 62
     7
370
    25
100
AcDbLine
 10
225.8441420789
 20
96.1754170122
 30
0.0
 11
257.8181019749
 21
96.1754170122
 31
0.0
  0
LINE
  5
E4
330
1F
100
AcDbEntity
  8
0
  6
Continuous
 62
     7
370
    25
100
AcDbLine
 10
272.8149062883
 20
139.1754170122
 30
0.0
 11
225.8441420789
 21
139.1754170122
 31
0.0
  0
LINE
  5
E5
330
1F
100
AcDbEntity
  8
0
  6
Continuous
 62
     7
370
    25
100
AcDbLine
 10
224.2166751365
 20
138.3378933997
 30
0.0
 11
220.4131374401
 21
133.0129406248
 31
0.0
  0
LINE
  5
E6
330
1F
100
AcDbEntity
  8
0
  6
Continuous
 62
     7
370
    25
100
AcDbLine
 10
220.4131374401
 20
102.3378933997
 30
0.0
 11
224.2166751365
 21
97.0129406248
 31
0.0
  0
ARC
  5
E7
330
1F
100
AcDbEntity
  8
0
  6
Continuous
 62
     7
370
    25
100
AcDbCircle
 10
218.7856704977
 20
101.1754170122
 30
0.0
 40
2.000000000000016
100
AcDbArc
 50
35.537677792
 51
90.0
  0
ARC
  5
E8
330
1F
100
AcDbEntity
  8
0
  6
Continuous
 62
     7
370
    25
100
AcDbCircle
 10
218.7856704977
 20
134.1754170122
 30
0.0
 40
2.000000000000008
100
AcDbArc
 50
270.0
 51
324.462322208
  0
LINE
  5
E9
330
1F
100
AcDbEntity
  8
0
  6
Continuous
 62
     7
370
    25
100
AcDbLine
 10
202.8149062883
 20
103.1754170122
 30
0.0
 11
218.7856704977
 21
103.1754170122
 31
0.0
  0
LINE
  5
EA
330
1F
100
AcDbEntity
  8
0
  6
Continuous
 62
     7
370
    25
100
AcDbLine
 10
187.8149062883
 20
103.1754170122
 30
0.0
 11
188.8370711725
 21
103.1754170122
 31
0.0
  0
LINE
  5
EB
330
1F
100
AcDbEntity
  8
0
  6
Continuous
 62
     7
370
    25
100
AcDbLine
 10
218.7856704977
 20
132.1754170122
 30
0.0
 11
187.8149062883
 21
132.1754170122
 31
0.0
  0
LINE
  5
EC
330
1F
100
AcDbEntity
  8
0
  6
Continuous
 62
     7
370
    25
100
AcDbLine
 10
188.8149062883
 20
103.186093514
 30
0.0
 11
188.8149062883
 21
82.6754170122
 31
0.0
  0
LINE
  5
ED
330
1F
100
AcDbEntity
  8
0
  6
Continuous
 62
     7
370
    25
100
AcDbLine
 10
202.8149062883
 20
82.6754170122
 30
0.0
 11
202.8149062883
 21
103.1754170122
 31
0.0
  0
LINE
  5
EE
330
1F
100
AcDbEntity
  8
0
  6
Continuous
 62
     7
370
    25
100
AcDbLine
 10
257.8149062883
 20
96.1764466839
 30
0.0
 11
257.8149062883
 21
68.6754170122
 31
0.0
  0
LINE
  5
EF
330
1F
100
AcDbEntity
  8
0
  6
Continuous
 62
     7
370
    25
100
AcDbLine
 10
271.8149062883
 20
68.6754170122
 30
0.0
 11
271.8149062883
 21
96.1754170122
 31
0.0
  0
LINE
  5
F0
330
1F
100
AcDbEntity
  8
0
  6
Continuous
 62
     7
370
    25
100
AcDbLine
 10
272.8149062883
 20
117.6754170122
 30
0.0
 11
272.8149062883
 21
139.1754170122
 31
0.0
  0
LINE
  5
F1
330
1F
100
AcDbEntity
  8
0
  6
Continuous
 62
     7
370
    25
100
AcDbLine
 10
272.8149062883
 20
96.1754170122
 30
0.0
 11
272.8149062883
 21
117.6754170122
 31
0.0
  0
SPLINE
  5
F2
330
1F
100
AcDbEntity
  8
0
  6
Continuous
 62
     7
370
    25
100
AcDbSpline
210
0.0
220
0.0
230
1.0
 70
     8
 71
     3
 72
    26
 73
    22
 74
     0
 42
0.00000001
 43
0.00000001
 40
0.0
 40
0.0
 40
0.0
 40
0.0
 40
0.0510509714993759
 40
0.1036284924752937
 40
0.1546672764786589
 40
0.2071062475484873
 40
0.2596831506879018
 40
0.3137032588986006
 40
0.3676181100357052
 40
0.4231954575207104
 40
0.4753284598983347
 40
0.5291134902973468
 40
0.5790679523375002
 40
0.6304326630502284
 40
0.6812205579258458
 40
0.733347726087287
 40
0.786614067573479
 40
0.841392983257585
 40
0.8950552265803572
 40
0.9504063201805372
 40
1.0
 40
1.0
 40
1.0
 40
1.0
 10
271.8149062883102
 20
96.17541701223782
 30
0.0
 10
271.7972520625364
 20
96.18119791169241
 30
0.0
 10
271.7614157062629
 20
96.19293257369854
 30
0.0
 10
271.4739708765279
 20
96.28494982187257
 30
0.0
 10
271.0218141747093
 20
96.42238768497535
 30
0.0
 10
270.4045486458161
 20
96.59595752586353
 30
0.0
 10
269.6270163195614
 20
96.7905061834632
 30
0.0
 10
268.7082882831604
 20
96.9849414595423
 30
0.0
 10
267.6577429176776
 20
97.15875162009868
 30
0.0
 10
266.5308050823283
 20
97.28550530455934
 30
0.0
 10
265.3515039476084
 20
97.35110014954893
 30
0.0
 10
264.1959683830013
 20
97.34826163073755
 30
0.0
 10
263.0660325547627
 20
97.28137873973334
 30
0.0
 10
262.0064897682977
 20
97.16228036888212
 30
0.0
 10
261.0094737546003
 20
97.00078930382344
 30
0.0
 10
260.1023654962494
 20
96.81334861483836
 30
0.0
 10
259.3014580338464
 20
96.61645801236492
 30
0.0
 10
258.6457724708243
 20
96.43368937398905
 30
0.0
 10
258.1622614057255
 20
96.28707456433706
 30
0.0
 10
257.8661557888395
 20
96.1921923766942
 30
0.0
 10
257.8335231559221
 20
96.18150329011114
 30
0.0
 10
257.8181019748968
 20
96.17645195577319
 30
0.0
  0
LINE
  5
F3
330
1F
100
AcDbEntity
  8
0
  6
Continuous
 62
     7
370
    25
100
AcDbLine
 10
187.8149062883
 20
117.6754170122
 30
0.0
 11
187.8149062883
 21
132.1754170122
 31
0.0
  0
LINE
  5
F4
330
1F
100
AcDbEntity
  8
0
  6
Continuous
 62
     7
370
    25
100
AcDbLine
 10
187.8149062883
 20
103.1754170122
 30
0.0
 11
187.8149062883
 21
117.6754170122
 31
0.0
  0
SPLINE
  5
F5
330
1F
100
AcDbEntity
  8
0
  6
Continuous
 62
     7
370
    25
100
AcDbSpline
210
0.0
220
0.0
230
1.0
 70
     8
 71
     3
 72
    27
 73
    23
 74
     0
 42
0.00000001
 43
0.00000001
 40
0.0
 40
0.0
 40
0.0
 40
0.0
 40
0.0489265275684857
 40
0.0993645637600915
 40
0.1482686493414792
 40
0.1984506904904258
 40
0.2502047590678162
 40
0.3032667965379592
 40
0.3585038521125439
 40
0.4155264089507393
 40
0.4674155615600718
 40
0.5212015486962013
 40
0.5675867820320096
 40
0.615268421527264
 40
0.6628587981215361
 40
0.711560990274817
 40
0.7646627750254622
 40
0.8191797276831738
 40
0.8742288110298753
 40
0.9311460852091435
 40
0.981826882110508
 40
1.0
 40
1.0
 40
1.0
 40
1.0
 10
202.8149062883103
 20
103.1754170122378
 30
0.0
 10
202.7983698656399
 20
103.1834368568706
 30
0.0
 10
202.7647861533584
 20
103.1997243067052
 30
0.0
 10
202.496283349431
 20
103.327597367382
 30
0.0
 10
202.0766038151411
 20
103.5193071849073
 30
0.0
 10
201.5020786765409
 20
103.7658078974303
 30
0.0
 10
200.7731931184974
 20
104.0501214474778
 30
0.0
 10
199.8892060294806
 20
104.3497226681809
 30
0.0
 10
198.8540676658058
 20
104.6332382644543
 30
0.0
 10
197.722060367426
 20
104.8519655881208
 30
0.0
 10
196.5320542772659
 20
104.9749864254597
 30
0.0
 10
195.3931674547941
 20
104.9865467172604
 30
0.0
 10
194.302445348238
 20
104.9007310035875
 30
0.0
 10
193.2996679953783
 20
104.7422190661945
 30
0.0
 10
192.3476896757095
 20
104.5220095223138
 30
0.0
 10
191.4478948052019
 20
104.2554692644818
 30
0.0
 10
190.6188422157443
 20
103.961453274755
 30
0.0
 10
189.8988086721754
 20
103.6705839816686
 30
0.0
 10
189.3256492874278
 20
103.4169993298475
 30
0.0
 10
188.9688833956822
 20
103.2497175343304
 30
0.0
 10
188.8081383233204
 20
103.1721600228761
 30
0.0
 10
188.8310293707356
 20
103.183188162255
 30
0.0
 10
188.8370711724916
 20
103.186098899831
 30
0.0
  0
LINE
  5
F6
330
1F
100
AcDbEntity
  8
0
  6
Continuous
 62
     7
370
    25
100
AcDbLine
 10
188.8149062883
 20
82.6754170122
 30
0.0
 11
202.8149062883
 21
82.6754170122
 31
0.0
  0
LINE
  5
F7
330
1F
100
AcDbEntity
  8
0
  6
Continuous
 62
     7
370
    25
100
AcDbLine
 10
257.8149062883
 20
68.6754170122
 30
0.0
 11
271.8149062883
 21
68.6754170122
 31
0.0
  0
LINE
  5
F8
330
1F
100
AcDbEntity
  8
0
  6
Continuous
 62
     1
370
    25
100
AcDbLine
 10
224.2166751365
 20
117.6754170122
 30
0.0
 11
224.2166751365
 21
138.3378933997
 31
0.0
  0
LINE
  5
F9
330
1F
100
AcDbEntity
  8
0
  6
Continuous
 62
     1
370
    25
100
AcDbLine
 10
224.2166751365
 20
97.0129406248
 30
0.0
 11
224.2166751365
 21
117.6754170122
 31
0.0
  0
LINE
  5
FA
330
1F
100
AcDbEntity
  8
0
  6
Continuous
 62
     1
370
    25
100
AcDbLine
 10
225.8441420789
 20
117.6754170122
 30
0.0
 11
225.8441420789
 21
139.1754170122
 31
0.0
  0
LINE
  5
FB
330
1F
100
AcDbEntity
  8
0
  6
Continuous
 62
     1
370
    25
100
AcDbLine
 10
225.8441420789
 20
96.1754170122
 30
0.0
 11
225.8441420789
 21
117.6754170122
 31
0.0
  0
LINE
  5
FC
330
1F
100
AcDbEntity
  8
0
  6
Continuous
 62
     1
370
    25
100
AcDbLine
 10
220.4131374401
 20
117.6754170122
 30
0.0
 11
220.4131374401
 21
133.0129406248
 31
0.0
  0
LINE
  5
FD
330
1F
100
AcDbEntity
  8
0
  6
Continuous
 62
     1
370
    25
100
AcDbLine
 10
220.4131374401
 20
102.3378933997
 30
0.0
 11
220.4131374401
 21
117.6754170122
 31
0.0
  0
LINE
  5
FE
330
1F
100
AcDbEntity
  8
0
  6
Continuous
 62
     1
370
    25
100
AcDbLine
 10
218.7856704977
 20
117.6754170122
 30
0.0
 11
218.7856704977
 21
132.1754170122
 31
0.0
  0
LINE
  5
FF
330
1F
100
AcDbEntity
  8
0
  6
Continuous
 62
     1
370
    25
100
AcDbLine
 10
218.7856704977
 20
103.1754170122
 30
0.0
 11
218.7856704977
 21
117.6754170122
 31
0.0
  0
ARC
  5
100
330
1F
100
AcDbEntity
  8
0
  6
Continuous
 62
     7
370
    25
100
AcDbCircle
 10
116.6701403815
 20
13.1526160805
 30
0.0
 40
2.0
100
AcDbArc
 50
125.537677792
 51
180.0
  0
ARC
  5
101
330
1F
100
AcDbEntity
  8
0
  6
Continuous
 62
     7
370
    25
100
AcDbCircle
 10
155.6701403815
 20
13.1526160805
 30
0.0
 40
2.0
100
AcDbArc
 50
0.0
 51
54.462322208
  0
LINE
  5
102
330
1F
100
AcDbEntity
  8
0
  6
Continuous
 62
     7
370
    25
100
AcDbLine
 10
114.6701403815
 20
13.1526160805
 30
0.0
 11
114.6701403815
 21
-33.8181481289
 31
0.0
  0
LINE
  5
103
330
1F
100
AcDbEntity
  8
0
  6
Continuous
 62
     7
370
    25
100
AcDbLine
 10
157.6701403815
 20
-33.8181481289
 30
0.0
 11
157.6701403815
 21
13.1526160805
 31
0.0
  0
LINE
  5
104
330
1F
100
AcDbEntity
  8
0
  6
Continuous
 62
     7
370
    25
100
AcDbLine
 10
156.8326167689
 20
14.7800830229
 30
0.0
 11
151.507663994
 21
18.5836207193
 31
0.0
  0
LINE
  5
105
330
1F
100
AcDbEntity
  8
0
  6
Continuous
 62
     7
370
    25
100
AcDbLine
 10
120.8326167689
 20
18.5836207193
 30
0.0
 11
115.507663994
 21
14.7800830229
 31
0.0
  0
ARC
  5
106
330
1F
100
AcDbEntity
  8
0
  6
Continuous
 62
     7
370
    25
100
AcDbCircle
 10
119.6701403815
 20
20.2110876617
 30
0.0
 40
2.000000000000007
100
AcDbArc
 50
305.537677792
 51
0.0
  0
ARC
  5
107
330
1F
100
AcDbEntity
  8
0
  6
Continuous
 62
     7
370
    25
100
AcDbCircle
 10
152.6701403815
 20
20.2110876617
 30
0.0
 40
2.000000000000028
100
AcDbArc
 50
180.0
 51
234.462322208
  0
LINE
  5
108
330
1F
100
AcDbEntity
  8
0
  6
Continuous
 62
     7
370
    25
100
AcDbLine
 10
121.6701403815
 20
51.1818518711
 30
0.0
 11
121.6701403815
 21
20.2110876617
 31
0.0
  0
LINE
  5
109
330
1F
100
AcDbEntity
  8
0
  6
Continuous
 62
     7
370
    25
100
AcDbLine
 10
150.6701403815
 20
20.2110876617
 30
0.0
 11
150.6701403815
 21
51.1818518711
 31
0.0
  0
LINE
  5
10A
330
1F
100
AcDbEntity
  8
0
  6
Continuous
 62
     7
370
    25
100
AcDbLine
 10
114.6701403815
 20
-33.8181481289
 30
0.0
 11
157.6701403815
 21
-33.8181481289
 31
0.0
  0
LINE
  5
10B
330
1F
100
AcDbEntity
  8
0
  6
Continuous
 62
     7
370
    25
100
AcDbLine
 10
121.6701403815
 20
51.1818518711
 30
0.0
 11
150.6701403815
 21
51.1818518711
 31
0.0
  0
LINE
  5
10C
330
1F
100
AcDbEntity
  8
0
  6
Continuous
 62
     1
370
    25
100
AcDbLine
 10
115.507663994
 20
14.7800830229
 30
0.0
 11
156.8326167689
 21
14.7800830229
 31
0.0
  0
LINE
  5
10D
330
1F
100
AcDbEntity
  8
0
  6
Continuous
 62
     1
370
    25
100
AcDbLine
 10
114.6701403815
 20
13.1526160805
 30
0.0
 11
157.6701403815
 21
13.1526160805
 31
0.0
  0
LINE
  5
10E
330
1F
100
AcDbEntity
  8
0
  6
Continuous
 62
     1
370
    25
100
AcDbLine
 10
120.8326167689
 20
18.5836207193
 30
0.0
 11
151.507663994
 21
18.5836207193
 31
0.0
  0
LINE
  5
10F
330
1F
100
AcDbEntity
  8
0
  6
Continuous
 62
     1
370
    25
100
AcDbLine
 10
121.6701403815
 20
20.2110876617
 30
0.0
 11
150.6701403815
 21
20.2110876617
 31
0.0
  0
LINE
  5
110
330
1F
100
AcDbEntity
  8
0
  6
Continuous
 62
     7
370
    25
100
AcDbLine
 10
185.2595945547
 20
40.8603291765
 30
0.0
 11
185.2595945547
 21
17.9334797222
 31
0.0
  0
LINE
  5
111
330
1F
100
AcDbEntity
  8
0
  6
Continuous
 62
     7
370
    25
100
AcDbLine
 10
199.2595945547
 20
17.9334797222
 30
0.0
 11
199.2595945547
 21
40.8603453148
 31
0.0
  0
LINE
  5
112
330
1F
100
AcDbEntity
  8
0
  6
Continuous
 62
     7
370
    25
100
AcDbLine
 10
230.5652125711
 20
60.6560060335
 30
0.0
 11
197.3518666811
 21
79.829662493
 31
0.0
  0
LINE
  5
113
330
1F
100
AcDbEntity
  8
0
  6
Continuous
 62
     7
370
    25
100
AcDbLine
 10
175.8536139294
 20
42.5895614107
 30
0.0
 11
185.2595945547
 21
37.1596043756
 31
0.0
  0
LINE
  5
114
330
1F
100
AcDbEntity
  8
0
  6
Continuous
 62
     7
370
    25
100
AcDbLine
 10
199.2595945547
 20
29.0775764064
 30
0.0
 11
209.0669598194
 21
23.4159049511
 31
0.0
  0
SPLINE
  5
115
330
1F
100
AcDbEntity
  8
0
  6
Continuous
 62
     7
370
    25
100
AcDbSpline
210
0.0
220
0.0
230
1.0
 70
     8
 71
     3
 72
    28
 73
    24
 74
     0
 42
0.00000001
 43
0.00000001
 40
0.0
 40
0.0
 40
0.0
 40
0.0
 40
0.0020874548752319
 40
0.0539038498329094
 40
0.1057951454412873
 40
0.1577673904225561
 40
0.2098236514110813
 40
0.2619625166242069
 40
0.314176075905725
 40
0.3664473295100971
 40
0.4187435002020022
 40
0.4710049586287046
 40
0.5231628709198936
 40
0.575130025907708
 40
0.6268050232271231
 40
0.6780817040609317
 40
0.728863453531962
 40
0.7790797584514891
 40
0.8287007172604469
 40
0.8777454339317297
 40
0.9262824410468482
 40
0.9744230304965146
 40
1.0
 40
1.0
 40
1.0
 40
1.0
 10
234.654125578543
 20
43.36772214205634
 30
0.0
 10
234.6586704161936
 20
43.38319225826936
 30
0.0
 10
234.776030675875
 20
43.78267338293388
 30
0.0
 10
234.9602432003776
 20
44.56300917023319
 30
0.0
 10
235.201354214152
 20
45.70430726187238
 30
0.0
 10
235.3844676063759
 20
46.83481795166237
 30
0.0
 10
235.515783159435
 20
47.95154688317271
 30
0.0
 10
235.5923068068372
 20
49.05083109381358
 30
0.0
 10
235.6136238301385
 20
50.12914598904293
 30
0.0
 10
235.5787565102885
 20
51.18282128908461
 30
0.0
 10
235.4870614774389
 20
52.20798784900563
 30
0.0
 10
235.3380821196835
 20
53.20059470536516
 30
0.0
 10
235.131700881644
 20
54.15642448320275
 30
0.0
 10
234.8682081803126
 20
55.07118617609508
 30
0.0
 10
234.548415479529
 20
55.94054410988258
 30
0.0
 10
234.1737334877213
 20
56.76028368277101
 30
0.0
 10
233.7461615834513
 20
57.52647357405605
 30
0.0
 10
233.2682916457336
 20
58.23579491942384
 30
0.0
 10
232.7428748682646
 20
58.88518766158472
 30
0.0
 10
232.1736657064409
 20
59.47369391658411
 30
0.0
 10
231.5614163497451
 20
59.99578212048522
 30
0.0
 10
231.0170806722579
 20
60.39305492536567
 30
0.0
 10
230.6636266988189
 20
60.59081471612263
 30
0.0
 10
230.540992666603
 20
60.65942925259176
 30
0.0
  0
SPLINE
  5
116
330
1F
100
AcDbEntity
  8
0
  6
Continuous
 62
     7
370
    25
100
AcDbSpline
210
0.0
220
0.0
230
1.0
 70
     8
 71
     3
 72
    27
 73
    23
 74
     0
 42
0.00000001
 43
0.00000001
 40
0.0
 40
0.0
 40
0.0
 40
0.0
 40
0.0448916019842363
 40
0.0937008148580898
 40
0.1425985799427081
 40
0.1917444664854048
 40
0.2412750688487723
 40
0.2912931355163281
 40
0.341859440893513
 40
0.3929890140707906
 40
0.4446531627477221
 40
0.4967875746735194
 40
0.5493049644554838
 40
0.6021092352172066
 40
0.6551078843468322
 40
0.7082204965256366
 40
0.761382843173075
 40
0.8145363169397332
 40
0.867651748196192
 40
0.9207124797436235
 40
0.9737104448713012
 40
1.0
 40
1.0
 40
1.0
 40
1.0
 10
209.0592924888562
 20
23.42348319235813
 30
0.0
 10
209.2706726253267
 20
23.30670091629645
 30
0.0
 10
209.7118796697769
 20
23.06294498101475
 30
0.0
 10
210.4248077529207
 20
22.77212766205013
 30
0.0
 10
211.1839398188567
 20
22.53372463857887
 30
0.0
 10
211.9714691463144
 20
22.3632703821267
 30
0.0
 10
212.7845748948398
 20
22.25938965575414
 30
0.0
 10
213.6217375830835
 20
22.22323938502541
 30
0.0
 10
214.4808150334951
 20
22.25536684015492
 30
0.0
 10
215.3593767886105
 20
22.35638719459319
 30
0.0
 10
216.2545104916976
 20
22.52658923128461
 30
0.0
 10
217.162884411047
 20
22.76584678923638
 30
0.0
 10
218.0808491017343
 20
23.07351053912683
 30
0.0
 10
219.0045977441639
 20
23.44839956068898
 30
0.0
 10
219.9303279586934
 20
23.88884615231027
 30
0.0
 10
220.8543538782871
 20
24.39281548617537
 30
0.0
 10
221.7731539703835
 20
24.95787051007635
 30
0.0
 10
222.6833215770573
 20
25.58165805296353
 30
0.0
 10
223.5821360388496
 20
26.26061992058942
 30
0.0
 10
224.4654194651433
 20
26.99516546774055
 30
0.0
 10
225.1896884273881
 20
27.64075624742688
 30
0.0
 10
225.6110727650606
 20
28.05847387976064
 30
0.0
 10
225.7507921905111
 20
28.19697752684102
 30
0.0
  0
LINE
  5
117
330
1F
100
AcDbEntity
  8
0
  6
Continuous
 62
     7
370
    25
100
AcDbLine
 10
229.7408353838
 20
32.9459050961
 30
0.0
 11
230.169195375
 21
33.5646863631
 31
0.0
  0
LINE
  5
118
330
1F
100
AcDbEntity
  8
0
  6
Continuous
 62
     7
370
    25
100
AcDbLine
 10
232.3294188924
 20
37.3067087069
 30
0.0
 11
232.6510553481
 21
37.9871001595
 31
0.0
  0
LINE
  5
119
330
1F
100
AcDbEntity
  8
0
  6
Continuous
 62
     7
370
    25
100
AcDbLine
 10
253.9562275177
 20
39.0699757039
 30
0.0
 11
235.5953173186
 21
49.6695035446
 31
0.0
  0
LINE
  5
11A
330
1F
100
AcDbEntity
  8
0
  6
Continuous
 62
     7
370
    25
100
AcDbLine
 10
221.0978671092
 20
24.5532948352
 30
0.0
 11
234.0499624566
 21
17.0762093454
 31
0.0
  0
LINE
  5
11B
330
1F
100
AcDbEntity
  8
0
  6
Continuous
 62
     7
370
    25
100
AcDbLine
 10
234.0499624566
 20
18.6494788889
 30
0.0
 11
234.0499624566
 21
1.1989712307
 31
0.0
  0
LINE
  5
11C
330
1F
100
AcDbEntity
  8
0
  6
Continuous
 62
     7
370
    25
100
AcDbLine
 10
248.0499624566
 20
1.1989712307
 30
0.0
 11
248.0499624566
 21
18.6496462106
 31
0.0
  0
LWPOLYLINE
  5
11D
330
1F
100
AcDbEntity
  8
0
  6
Continuous
 62
     7
370
    25
100
AcDbPolyline
 90
       59
 70
   128
 43
0.0
 10
187.3098470864
 20
20.7909081135
 10
187.8740245559
 20
21.0831000988
 10
188.4896188238
 20
21.3383656648
 10
189.1494126103
 20
21.5537120563
 10
189.8456704363
 20
21.7266145337
 10
190.5702293156
 20
21.8550459735
 10
191.3145944578
 20
21.9375006345
 10
192.070038862
 20
21.9730118113
 10
192.8277056334
 20
21.9611631676
 10
193.5787118219
 20
21.9020936182
 10
194.3142525665
 20
21.7964956993
 10
195.0257043245
 20
21.6456074501
 10
195.7047259745
 20
21.4511978973
 10
196.3433566085
 20
21.2155463152
 10
196.9341088663
 20
20.9414155031
 10
197.4700567177
 20
20.6320193942
 10
197.9449166642
 20
20.2909853749
 10
198.3531214071
 20
19.9223117573
 10
198.6898851191
 20
19.5303209025
 10
198.9512595534
 20
19.1196085449
 10
199.1341803339
 20
18.6949899113
 10
199.2365028817
 20
18.261443267
 10
199.2570275583
 20
17.82405155
 10
199.1955137308
 20
17.3879427783
 10
199.0526825925
 20
16.9582299284
 10
198.830208708
 20
16.5399509907
 10
198.5307003801
 20
16.1380099033
 10
198.1576690701
 20
15.7571190578
 10
197.715488229
 20
15.4017440513
 10
197.2093420231
 20
15.0760513308
 10
196.6451645536
 20
14.7838593455
 10
196.0295702857
 20
14.5285937795
 10
195.3697764992
 20
14.313247388
 10
194.6735186731
 20
14.1403449106
 10
193.9489597938
 20
14.0119134708
 10
193.2045946517
 20
13.9294588098
 10
192.4491502475
 20
13.8939476331
 10
191.6914834761
 20
13.9057962767
 10
190.9404772876
 20
13.9648658262
 10
190.204936543
 20
14.070463745
 10
189.493484785
 20
14.2213519942
 10
188.814463135
 20
14.415761547
 10
188.175832501
 20
14.6514131291
 10
187.5850802432
 20
14.9255439412
 10
187.0491323918
 20
15.2349400502
 10
186.5742724453
 20
15.5759740694
 10
186.1660677024
 20
15.944647687
 10
185.8293039904
 20
16.3366385418
 10
185.567929556
 20
16.7473508995
 10
185.3850087756
 20
17.171969533
 10
185.2826862278
 20
17.6055161773
 10
185.2621615512
 20
18.0429078943
 10
185.3236753787
 20
18.4790166661
 10
185.466506517
 20
18.9087295159
 10
185.6889804015
 20
19.3270084536
 10
185.9884887294
 20
19.7289495411
 10
186.3615200394
 20
20.1098403865
 10
186.8037008805
 20
20.465215393
 10
187.3098470864
 20
20.7909081135
  0
LWPOLYLINE
  5
11E
330
1F
100
AcDbEntity
  8
0
  6
Continuous
 62
     7
370
    25
100
AcDbPolyline
 90
       50
 70
   128
 43
0.0
 10
188.7240606488
 20
19.9745000017
 10
189.2052013742
 20
20.2187431337
 10
189.7364951512
 20
20.4254623037
 10
190.3092181507
 20
20.5912631886
 10
190.9139662768
 20
20.7134233424
 10
191.540809582
 20
20.7899368989
 10
192.1794553166
 20
20.8195475074
 10
192.8194169353
 20
20.8017689628
 10
193.4501862859
 20
20.7368931881
 10
194.0614061533
 20
20.6259854418
 10
194.643040324
 20
20.470866826
 10
195.1855383811
 20
20.2740843841
 10
195.6799925214
 20
20.0388692784
 10
196.1182838217
 20
19.7690837344
 10
196.4932155509
 20
19.4691576232
 10
196.7986313404
 20
19.1440157234
 10
197.0295162713
 20
18.7989968559
 10
197.1820792196
 20
18.4397662209
 10
197.2538151057
 20
18.0722223757
 10
197.2435460285
 20
17.70240038
 10
197.1514406058
 20
17.3363727006
 10
196.9790112063
 20
16.980149502
 10
196.7290891158
 20
16.6395799593
 10
196.4057780482
 20
16.3202562149
 10
196.0143867622
 20
16.027421556
 10
195.561341892
 20
15.7658843194
 10
195.0540824218
 20
15.5399389394
 10
194.5009375381
 20
15.3532954328
 10
193.9109898645
 20
15.209018481
 10
193.2939263257
 20
15.1094771074
 10
192.6598790877
 20
15.0563057787
 10
192.0192591888
 20
15.0503775666
 10
191.3825855899
 20
15.0917898122
 10
190.760312454
 20
15.1798625276
 10
190.1626574888
 20
15.3131495611
 10
189.5994341722
 20
15.4894623435
 10
189.0798906155
 20
15.7059058236
 10
188.6125577096
 20
15.9589260056
 10
188.2051090479
 20
16.244368305
 10
187.8642349261
 20
16.5575457672
 10
187.5955324879
 20
16.8933160268
 10
187.4034138199
 20
17.2461657456
 10
187.2910335053
 20
17.6103011409
 10
187.2602368257
 20
17.9797431196
 10
187.3115294619
 20
18.3484254546
 10
187.4440691901
 20
18.7102943921
 10
187.6556797116
 20
19.0594080542
 10
187.9428863876
 20
19.3900340042
 10
188.3009732924
 20
19.6967433731
 10
188.7240606488
 20
19.9745000017
  0
SPLINE
  5
11F
330
1F
100
AcDbEntity
  8
0
  6
Continuous
 62
     7
370
    25
100
AcDbSpline
210
0.0
220
0.0
230
1.0
 70
     8
 71
     3
 72
    12
 73
     8
 74
     0
 42
0.00000001
 43
0.00000001
 40
0.0
 40
0.0
 40
0.0
 40
0.0
 40
0.2042158318758272
 40
0.4145382188689338
 40
0.6187052979088555
 40
0.8284734528570598
 40
0.9999999999999999
 40
0.9999999999999999
 40
0.9999999999999999
 40
0.9999999999999999
 10
187.3098470864399
 20
43.24578044039836
 30
0.0
 10
187.0559538076054
 20
43.08947683052524
 30
0.0
 10
186.5405752171009
 20
42.77219574881661
 30
0.0
 10
185.9588321948949
 20
42.27746500728541
 30
0.0
 10
185.5380339818158
 20
41.7752275632146
 30
0.0
 10
185.2943166863271
 20
41.30339698681293
 30
0.0
 10
185.280132967163
 20
40.99751004718971
 30
0.0
 10
185.2737523792331
 20
40.85990590456213
 30
0.0
  0
SPLINE
  5
120
330
1F
100
AcDbEntity
  8
0
  6
Continuous
 62
     7
370
    25
100
AcDbSpline
210
0.0
220
0.0
230
1.0
 70
     8
 71
     3
 72
    22
 73
    18
 74
     0
 42
0.00000001
 43
0.00000001
 40
0.0
 40
0.0
 40
0.0
 40
0.0
 40
0.0142364463842601
 40
0.0856877476405142
 40
0.1592152953120497
 40
0.2303475657839561
 40
0.3037544921943515
 40
0.3714433711641716
 40
0.4411704555099664
 40
0.5078039692786935
 40
0.5762237174927289
 40
0.6456641875605688
 40
0.7169779115981432
 40
0.7888396245357763
 40
0.8628711044123135
 40
0.9304499971481767
 40
1.0
 40
1.0
 40
1.0
 40
1.0
 10
199.2442825677002
 20
40.86077898583193
 30
0.0
 10
199.2490370185122
 20
40.91604733690855
 30
0.0
 10
199.277653582671
 20
41.24870201713809
 30
0.0
 10
199.1392583007844
 20
41.86831086354722
 30
0.0
 10
198.816769891101
 20
42.66623366784979
 30
0.0
 10
198.2815326844706
 20
43.39468991374781
 30
0.0
 10
197.5900875473199
 20
43.99709312487855
 30
0.0
 10
196.7532718993971
 20
44.46697887786812
 30
0.0
 10
195.8268017579462
 20
44.78797329096734
 30
0.0
 10
194.8090314190461
 20
44.97345147320983
 30
0.0
 10
193.7323623336749
 20
45.02877446734917
 30
0.0
 10
192.5958365577897
 20
44.96092853917942
 30
0.0
 10
191.4320159248086
 20
44.77794148043333
 30
0.0
 10
190.2629211294032
 20
44.49046404904857
 30
0.0
 10
189.168021163758
 20
44.12499323576662
 30
0.0
 10
188.1576217620879
 20
43.70520817168001
 30
0.0
 10
187.5951337390891
 20
43.40038354822457
 30
0.0
 10
187.3098470864399
 20
43.24578044039836
 30
0.0
  0
LWPOLYLINE
  5
121
330
1F
100
AcDbEntity
  8
0
  6
Continuous
 62
     7
370
    25
100
AcDbPolyline
 90
      103
 70
   128
 43
0.0
 10
171.3999445097
 20
52.4332247498
 10
171.4287792156
 20
53.5306110051
 10
171.5151739534
 20
54.6571263412
 10
171.6588009983
 20
55.8084974997
 10
171.8591155236
 20
56.9803569353
 10
172.1153576678
 20
58.1682593838
 10
172.4265554166
 20
59.3676987244
 10
172.7915282905
 20
60.5741250727
 10
173.2088918222
 20
61.7829620405
 10
173.6770628089
 20
62.9896240949
 10
174.1942653178
 20
64.1895339536
 10
174.7585374225
 20
65.3781399475
 10
175.3677386457
 20
66.5509332868
 10
176.0195580785
 20
67.7034651648
 10
176.7115231464
 20
68.8313636332
 10
177.4410089891
 20
69.9303501868
 10
178.2052484167
 20
70.9962559933
 10
179.0013424075
 20
72.0250377067
 10
179.8262711042
 20
73.0127928056
 10
180.6769052696
 20
73.9557743967
 10
181.5500181571
 20
74.8504054278
 10
182.4422977504
 20
75.6932922568
 10
183.3503593274
 20
76.4812375255
 10
184.2707582994
 20
77.2112522874
 10
185.2000032779
 20
77.8805673465
 10
186.1345693185
 20
78.4866437616
 10
187.070911292
 20
79.0271824772
 10
188.0054773326
 20
79.5001330448
 10
188.9347223111
 20
79.9037014009
 10
189.8551212831
 20
80.2363566726
 10
190.7631828601
 20
80.4968369843
 10
191.6554624534
 20
80.6841542452
 10
192.5285753409
 20
80.7975978966
 10
193.3792095064
 20
80.8367376079
 10
194.204138203
 20
80.8014249088
 10
195.0002321938
 20
80.6917937524
 10
195.7644716214
 20
80.5082600073
 10
196.4939574641
 20
80.2515198799
 10
197.1859225321
 20
79.9225472734
 10
197.8377419648
 20
79.5225900935
 10
198.446943188
 20
79.0531655148
 10
199.0112152927
 20
78.5160542256
 10
199.5284178016
 20
77.913293673
 10
199.9965887883
 20
77.2471703341
 10
200.41395232
 20
76.520211043
 10
200.7789251939
 20
75.7351734053
 10
201.0901229427
 20
74.8950353376
 10
201.3463650869
 20
74.0029837714
 10
201.5466796122
 20
73.0624025638
 10
201.6903066571
 20
72.0768596616
 10
201.7767013949
 20
71.0500935665
 10
201.8055361008
 20
69.9859991539
 10
201.7767013949
 20
68.8886128986
 10
201.6903066571
 20
67.7620975625
 10
201.5466796122
 20
66.610726404
 10
201.3463650869
 20
65.4388669684
 10
201.0901229427
 20
64.2509645199
 10
200.7789251939
 20
63.0515251793
 10
200.41395232
 20
61.845098831
 10
199.9965887883
 20
60.6362618632
 10
199.5284178016
 20
59.4295998088
 10
199.0112152927
 20
58.2296899501
 10
198.446943188
 20
57.0410839562
 10
197.8377419648
 20
55.8682906169
 10
197.1859225321
 20
54.7157587389
 10
196.4939574641
 20
53.5878602705
 10
195.7644716214
 20
52.4888737169
 10
195.0002321938
 20
51.4229679104
 10
194.204138203
 20
50.394186197
 10
193.3792095064
 20
49.4064310981
 10
192.5285753409
 20
48.463449507
 10
191.6554624534
 20
47.5688184759
 10
190.7631828601
 20
46.7259316469
 10
189.8551212831
 20
45.9379863782
 10
188.9347223111
 20
45.2079716163
 10
188.0054773326
 20
44.5386565572
 10
187.070911292
 20
43.9325801421
 10
186.1345693185
 20
43.3920414265
 10
185.2000032779
 20
42.9190908589
 10
184.2707582994
 20
42.5155225028
 10
183.3503593274
 20
42.1828672311
 10
182.4422977504
 20
41.9223869194
 10
181.5500181571
 20
41.7350696585
 10
180.6769052696
 20
41.6216260071
 10
179.8262711042
 20
41.5824862958
 10
179.0013424075
 20
41.6177989949
 10
178.2052484167
 20
41.7274301513
 10
177.4410089891
 20
41.9109638964
 10
176.7115231464
 20
42.1677040238
 10
176.0195580785
 20
42.4966766303
 10
175.3677386457
 20
42.8966338102
 10
174.7585374225
 20
43.3660583889
 10
174.1942653178
 20
43.9031696781
 10
173.6770628089
 20
44.5059302307
 10
173.2088918222
 20
45.1720535696
 10
172.7915282905
 20
45.8990128607
 10
172.4265554166
 20
46.6840504984
 10
172.1153576678
 20
47.5241885661
 10
171.8591155236
 20
48.4162401323
 10
171.6588009983
 20
49.3568213399
 10
171.5151739534
 20
50.3423642421
 10
171.4287792156
 20
51.3691303372
 10
171.3999445097
 20
52.4332247498
  0
LWPOLYLINE
  5
122
330
1F
100
AcDbEntity
  8
0
  6
Continuous
 62
     7
370
    25
100
AcDbPolyline
 90
       89
 70
   128
 43
0.0
 10
175.2890318063
 20
54.6783470573
 10
175.3178578389
 20
55.6270096448
 10
175.4041890458
 20
56.604119894
 10
175.547585503
 20
57.6046986751
 10
175.747316495
 20
58.6236472679
 10
176.0023642384
 20
59.6557733439
 10
176.3114290685
 20
60.6958174254
 10
176.6729360616
 20
61.738479686
 10
177.0850430611
 20
62.7784469578
 10
177.545650064
 20
63.8104198061
 10
178.0524099228
 20
64.8291395337
 10
178.6027403053
 20
65.8294149784
 10
179.193836854
 20
66.8061489658
 10
179.8226874764
 20
67.7543642835
 10
180.4860876939
 20
68.6692290434
 10
181.1806569711
 20
69.5460813046
 10
181.902855942
 20
70.3804528288
 10
182.6490044464
 20
71.1680918501
 10
183.4153002825
 20
71.9049847405
 10
184.1978385822
 20
72.5873764627
 10
184.9926317099
 20
73.2117897051
 10
185.795629582
 20
73.7750426007
 10
186.6027403053
 20
74.274264942
 10
187.4098510285
 20
74.7069128064
 10
188.2128489006
 20
75.0707815195
 10
189.0076420283
 20
75.3640168897
 10
189.790180328
 20
75.5851246568
 10
190.5564761641
 20
75.7329781063
 10
191.3026246685
 20
75.806823811
 10
192.0248236394
 20
75.80628547
 10
192.7193929166
 20
75.7313658267
 10
193.3827931341
 20
75.5824466542
 10
194.0116437565
 20
75.3602868107
 10
194.6027403053
 20
75.0660183717
 10
195.1530706877
 20
74.7011408618
 10
195.6598305465
 20
74.2675136131
 10
196.1204375494
 20
73.7673462907
 10
196.5325445489
 20
73.2031876325
 10
196.894051542
 20
72.5779124619
 10
197.2031163721
 20
71.8947070377
 10
197.4581641156
 20
71.1570528182
 10
197.6578951075
 20
70.3687087202
 10
197.8012915647
 20
69.5336919645
 10
197.8876227716
 20
68.6562576051
 10
197.9164488042
 20
67.7408768464
 10
197.8876227716
 20
66.7922142589
 10
197.8012915647
 20
65.8151040097
 10
197.6578951075
 20
64.8145252287
 10
197.4581641156
 20
63.7955766359
 10
197.2031163721
 20
62.7634505598
 10
196.894051542
 20
61.7234064783
 10
196.5325445489
 20
60.6807442177
 10
196.1204375494
 20
59.6407769459
 10
195.6598305465
 20
58.6088040976
 10
195.1530706877
 20
57.59008437
 10
194.6027403053
 20
56.5898089253
 10
194.0116437565
 20
55.6130749379
 10
193.3827931341
 20
54.6648596202
 10
192.7193929166
 20
53.7499948603
 10
192.0248236394
 20
52.8731425991
 10
191.3026246685
 20
52.0387710749
 10
190.5564761641
 20
51.2511320536
 10
189.790180328
 20
50.5142391632
 10
189.0076420283
 20
49.831847441
 10
188.2128489006
 20
49.2074341986
 10
187.4098510285
 20
48.644181303
 10
186.6027403053
 20
48.1449589617
 10
185.795629582
 20
47.7123110973
 10
184.9926317099
 20
47.3484423843
 10
184.1978385822
 20
47.055207014
 10
183.4153002825
 20
46.8340992469
 10
182.6490044464
 20
46.6862457974
 10
181.902855942
 20
46.6124000927
 10
181.1806569711
 20
46.6129384337
 10
180.4860876939
 20
46.687858077
 10
179.8226874764
 20
46.8367772495
 10
179.193836854
 20
47.058937093
 10
178.6027403053
 20
47.353205532
 10
178.0524099228
 20
47.7180830419
 10
177.545650064
 20
48.1517102906
 10
177.0850430611
 20
48.6518776131
 10
176.6729360616
 20
49.2160362712
 10
176.3114290685
 20
49.8413114418
 10
176.0023642384
 20
50.524516866
 10
175.747316495
 20
51.2621710855
 10
175.547585503
 20
52.0505151835
 10
175.4041890458
 20
52.8855319392
 10
175.3178578389
 20
53.7629662986
 10
175.2890318063
 20
54.6783470573
  0
ARC
  5
123
330
1F
100
AcDbEntity
  8
0
  6
Continuous
 62
     7
370
    25
100
AcDbCircle
 10
201.5192336501
 20
52.6066912512
 30
0.0
 40
34.39840440105113
100
AcDbArc
 50
314.7359444147
 51
344.3359405098
  0
ARC
  5
124
330
1F
100
AcDbEntity
  8
0
  6
Continuous
 62
     7
370
    25
100
AcDbCircle
 10
208.4284986396
 20
48.6098698585
 30
0.0
 40
26.438900146352
100
AcDbArc
 50
325.3156584344
 51
334.6897180983
  0
LWPOLYLINE
  5
125
330
1F
100
AcDbEntity
  8
0
  6
Continuous
 62
     7
370
    25
100
AcDbPolyline
 90
       32
 70
   128
 43
0.0
 10
253.9562275177
 20
39.0699757039
 10
254.2228329743
 20
38.9043086279
 10
254.7229726796
 20
38.5219161417
 10
255.178282789
 20
38.072360827
 10
255.5862170237
 20
37.5581567796
 10
255.94449405
 20
36.982179637
 10
256.2511102375
 20
36.347650497
 10
256.504350864
 20
35.6581179041
 10
256.7027997053
 20
34.9174380041
 10
256.8453469548
 20
34.1297529795
 10
256.9311954307
 20
33.2994678845
 10
256.9598650333
 20
32.4312260101
 10
256.9311954307
 20
31.5298829171
 10
256.8453469548
 20
30.6004792817
 10
256.7027997053
 20
29.6482127059
 10
256.504350864
 20
28.6784086509
 10
256.2511102375
 20
27.6964906541
 10
255.94449405
 20
26.7079499995
 10
255.5862170237
 20
25.7183150072
 10
255.178282789
 20
24.7331201177
 10
254.7229726796
 20
23.7578749404
 10
254.2228329743
 20
22.7980334418
 10
253.6806606573
 20
21.858963445
 10
253.0994877761
 20
20.9459166104
 10
252.4825644851
 20
20.0639990662
 10
251.8333408697
 20
19.2181428531
 10
251.1554476517
 20
18.4130783421
 10
250.4526758848
 20
17.6533077805
 10
249.728955754
 20
16.9430801135
 10
248.9883345958
 20
16.2863672223
 10
248.234954264
 20
15.6868417118
 10
248.0499624566
 20
15.5498378149
  0
SPLINE
  5
126
330
1F
100
AcDbEntity
  8
0
  6
Continuous
 62
     7
370
    25
100
AcDbSpline
210
0.0
220
0.0
230
1.0
 70
     8
 71
     3
 72
    12
 73
     8
 74
     0
 42
0.00000001
 43
0.00000001
 40
0.0
 40
0.0
 40
0.0
 40
0.0
 40
0.1988584128619393
 40
0.3977682030227933
 40
0.5960613958116011
 40
0.7944339803063475
 40
1.0
 40
1.0
 40
1.0
 40
1.0
 10
236.1002149883118
 20
20.79548626571518
 30
0.0
 10
235.8509357159498
 20
20.64431044717024
 30
0.0
 10
235.3523127671331
 20
20.3419197521139
 30
0.0
 10
234.7811424957465
 20
19.89714506930113
 30
0.0
 10
234.3663820702824
 20
19.47028558252524
 30
0.0
 10
234.0994773654211
 20
19.05448306936923
 30
0.0
 10
234.0681219366899
 20
18.78600812534469
 30
0.0
 10
234.05216502984
 20
18.64938012035
 30
0.0
  0
SPLINE
  5
127
330
1F
100
AcDbEntity
  8
0
  6
Continuous
 62
     7
370
    25
100
AcDbSpline
210
0.0
220
0.0
230
1.0
 70
     8
 71
     3
 72
    22
 73
    18
 74
     0
 42
0.00000001
 43
0.00000001
 40
0.0
 40
0.0
 40
0.0
 40
0.0
 40
0.0435476976368086
 40
0.115404700105802
 40
0.1901275865557794
 40
0.2647907509577564
 40
0.3324566146885232
 40
0.4001219564012871
 40
0.4621455750796337
 40
0.5241982488485905
 40
0.5904180349542325
 40
0.6566543279790943
 40
0.7302355883561188
 40
0.8037909050456281
 40
0.8772930720547766
 40
0.9507560481402282
 40
0.9999999999999999
 40
0.9999999999999999
 40
0.9999999999999999
 40
0.9999999999999999
 10
248.0265681616567
 20
18.64940277934146
 30
0.0
 10
248.0286323774138
 20
18.83498091712507
 30
0.0
 10
248.0341027056591
 20
19.32677705100397
 30
0.0
 10
247.8241610748162
 20
20.12440865637085
 30
0.0
 10
247.4062405474625
 20
20.98604279845144
 30
0.0
 10
246.7944026480503
 20
21.72288109417116
 30
0.0
 10
246.0326766249176
 20
22.28380693314916
 30
0.0
 10
245.1921357745
 20
22.66210941062011
 30
0.0
 10
244.2828024840441
 20
22.87442498927708
 30
0.0
 10
243.3198942446757
 20
22.9532347830887
 30
0.0
 10
242.2923941646715
 20
22.90368761852987
 30
0.0
 10
241.1802661819665
 20
22.73443034591238
 30
0.0
 10
240.0231453512676
 20
22.45130494264852
 30
0.0
 10
238.8471727276581
 20
22.06920459873518
 30
0.0
 10
237.7282650398964
 20
21.62156922502058
 30
0.0
 10
236.8029894990945
 20
21.18706959310101
 30
0.0
 10
236.3014782456822
 20
20.9076293995261
 30
0.0
 10
236.1002149883118
 20
20.79548626571518
 30
0.0
  0
LWPOLYLINE
  5
128
330
1F
100
AcDbEntity
  8
0
  6
Continuous
 62
     7
370
    25
100
AcDbPolyline
 90
       59
 70
   128
 43
0.0
 10
236.1002149883
 20
4.0563996221
 10
236.6643924578
 20
4.3485916073
 10
237.2799867257
 20
4.6038571733
 10
237.9397805121
 20
4.8192035648
 10
238.6360383382
 20
4.9921060422
 10
239.3605972175
 20
5.120537482
 10
240.1049623596
 20
5.202992143
 10
240.8604067639
 20
5.2385033198
 10
241.6180735353
 20
5.2266546762
 10
242.3690797238
 20
5.1675851267
 10
243.1046204683
 20
5.0619872078
 10
243.8160722263
 20
4.9110989586
 10
244.4950938763
 20
4.7166894058
 10
245.1337245104
 20
4.4810378237
 10
245.7244767681
 20
4.2069070116
 10
246.2604246196
 20
3.8975109027
 10
246.7352845661
 20
3.5564768834
 10
247.143489309
 20
3.1878032658
 10
247.480253021
 20
2.795812411
 10
247.7416274553
 20
2.3851000534
 10
247.9245482358
 20
1.9604814198
 10
248.0268707835
 20
1.5269347755
 10
248.0473954602
 20
1.0895430585
 10
247.9858816327
 20
0.6534342868
 10
247.8430504944
 20
0.2237214369
 10
247.6205766098
 20
-0.1945575008
 10
247.3210682819
 20
-0.5964985882
 10
246.9480369719
 20
-0.9773894336
 10
246.5058561309
 20
-1.3327644402
 10
245.9997099249
 20
-1.6584571607
 10
245.4355324555
 20
-1.9506491459
 10
244.8199381875
 20
-2.205914712
 10
244.1601444011
 20
-2.4212611035
 10
243.463886575
 20
-2.5941635808
 10
242.7393276957
 20
-2.7225950206
 10
241.9949625536
 20
-2.8050496817
 10
241.2395181494
 20
-2.8405608584
 10
240.4818513779
 20
-2.8287122148
 10
239.7308451895
 20
-2.7696426653
 10
238.9953044449
 20
-2.6640447465
 10
238.2838526869
 20
-2.5131564973
 10
237.6048310369
 20
-2.3187469445
 10
236.9662004029
 20
-2.0830953624
 10
236.3754481451
 20
-1.8089645503
 10
235.8395002937
 20
-1.4995684413
 10
235.3646403472
 20
-1.158534422
 10
234.9564356042
 20
-0.7898608044
 10
234.6196718923
 20
-0.3978699497
 10
234.3582974579
 20
0.012842408
 10
234.1753766774
 20
0.4374610416
 10
234.0730541297
 20
0.8710076858
 10
234.0525294531
 20
1.3083994028
 10
234.1140432806
 20
1.7445081746
 10
234.2568744188
 20
2.1742210244
 10
234.4793483034
 20
2.5924999621
 10
234.7788566313
 20
2.9944410496
 10
235.1518879413
 20
3.375331895
 10
235.5940687823
 20
3.7307069015
 10
236.1002149883
 20
4.0563996221
  0
LWPOLYLINE
  5
129
330
1F
100
AcDbEntity
  8
0
  6
Continuous
 62
     7
370
    25
100
AcDbPolyline
 90
       50
 70
   128
 43
0.0
 10
237.5144285507
 20
3.2399915102
 10
237.9955692761
 20
3.4842346422
 10
238.5268630531
 20
3.6909538122
 10
239.0995860526
 20
3.8567546971
 10
239.7043341787
 20
3.9789148509
 10
240.3311774839
 20
4.0554284074
 10
240.9698232185
 20
4.0850390159
 10
241.6097848371
 20
4.0672604713
 10
242.2405541878
 20
4.0023846966
 10
242.8517740551
 20
3.8914769503
 10
243.4334082258
 20
3.7363583345
 10
243.9759062829
 20
3.5395758926
 10
244.4703604233
 20
3.3043607869
 10
244.9086517236
 20
3.0345752429
 10
245.2835834528
 20
2.7346491317
 10
245.5889992423
 20
2.4095072319
 10
245.8198841732
 20
2.0644883644
 10
245.9724471215
 20
1.7052577295
 10
246.0441830076
 20
1.3377138842
 10
246.0339139304
 20
0.9678918885
 10
245.9418085077
 20
0.6018642091
 10
245.7693791082
 20
0.2456410105
 10
245.5194570177
 20
-0.0949285322
 10
245.19614595
 20
-0.4142522765
 10
244.8047546641
 20
-0.7070869355
 10
244.3517097939
 20
-0.9686241721
 10
243.8444503237
 20
-1.1945695521
 10
243.2913054399
 20
-1.3812130586
 10
242.7013577664
 20
-1.5254900105
 10
242.0842942275
 20
-1.625031384
 10
241.4502469896
 20
-1.6782027127
 10
240.8096270906
 20
-1.6841309248
 10
240.1729534918
 20
-1.6427186793
 10
239.5506803559
 20
-1.5546459639
 10
238.9530253906
 20
-1.4213589304
 10
238.389802074
 20
-1.245046148
 10
237.8702585174
 20
-1.0286026679
 10
237.4029256115
 20
-0.7755824859
 10
236.9954769498
 20
-0.4901401865
 10
236.654602828
 20
-0.1769627243
 10
236.3859003898
 20
0.1588075354
 10
236.1937817218
 20
0.5116572542
 10
236.0814014072
 20
0.8757926495
 10
236.0506047276
 20
1.2452346281
 10
236.1018973638
 20
1.6139169631
 10
236.234437092
 20
1.9757859006
 10
236.4460476135
 20
2.3248995627
 10
236.7332542895
 20
2.6555255127
 10
237.0913411943
 20
2.9622348817
 10
237.5144285507
 20
3.2399915102
  0
LWPOLYLINE
  5
12A
330
1F
100
AcDbEntity
  8
0
  6
Continuous
 62
     1
370
    25
100
AcDbPolyline
 90
       53
 70
   128
 43
0.0
 10
230.5652125711
 20
60.6560060335
 10
231.0510878548
 20
60.3489336339
 10
231.660289078
 20
59.8795090553
 10
232.2245611827
 20
59.3423977661
 10
232.7417636916
 20
58.7396372134
 10
233.2099346783
 20
58.0735138746
 10
233.62729821
 20
57.3465545835
 10
233.9922710839
 20
56.5615169458
 10
234.3034688327
 20
55.7213788781
 10
234.5597109769
 20
54.8293273119
 10
234.7600255022
 20
53.8887461043
 10
234.9036525471
 20
52.9032032021
 10
234.9900472849
 20
51.8764371069
 10
235.0188819908
 20
50.8123426944
 10
234.9900472849
 20
49.7149564391
 10
234.9036525471
 20
48.5884411029
 10
234.7600255022
 20
47.4370699445
 10
234.5597109769
 20
46.2652105088
 10
234.3034688327
 20
45.0773080603
 10
233.9922710839
 20
43.8778687198
 10
233.62729821
 20
42.6714423714
 10
233.2099346783
 20
41.4626054037
 10
232.7417636916
 20
40.2559433492
 10
232.2245611827
 20
39.0560334905
 10
231.660289078
 20
37.8674274967
 10
231.0510878548
 20
36.6946341574
 10
230.399268422
 20
35.5421022794
 10
229.7073033541
 20
34.414203811
 10
228.9778175114
 20
33.3152172573
 10
228.2135780838
 20
32.2493114509
 10
227.417484093
 20
31.2205297375
 10
226.5925553963
 20
30.2327746385
 10
225.7419212309
 20
29.2897930474
 10
224.8688083434
 20
28.3951620164
 10
223.9765287501
 20
27.5522751873
 10
223.0684671731
 20
26.7643299187
 10
222.1480682011
 20
26.0343151568
 10
221.2188232226
 20
25.3650000977
 10
220.284257182
 20
24.7589236826
 10
219.3479152085
 20
24.218384967
 10
218.4133491679
 20
23.7454343994
 10
217.4841041894
 20
23.3418660432
 10
216.5637052174
 20
23.0092107716
 10
215.6556436404
 20
22.7487304598
 10
214.7633640471
 20
22.561413199
 10
213.8902511596
 20
22.4479695476
 10
213.0396169941
 20
22.4088298363
 10
212.2146882975
 20
22.4441425354
 10
211.4185943067
 20
22.5537736917
 10
210.6543548791
 20
22.7373074368
 10
209.9248690364
 20
22.9940475643
 10
209.2329039684
 20
23.3230201708
 10
209.0669598194
 20
23.4159049511
  0
ARC
  5
12B
330
1F
100
AcDbEntity
  8
0
  6
Continuous
 62
     1
370
    25
100
AcDbCircle
 10
212.8011904509
 20
46.0800529564
 30
0.0
 40
22.28288828804915
100
AcDbArc
 50
302.939034628
 51
357.3475408017
  0
ENDSEC
  0
SECTION
  2
OBJECTS
  0
DICTIONARY
  5
C
330
0
100
AcDbDictionary
281
     1
  3
ACAD_GROUP
350
D
  3
ACAD_LAYOUT
350
1A
  3
ACAD_MLINESTYLE
350
17
  3
ACAD_PLOTSETTINGS
350
19
  3
ACAD_PLOTSTYLENAME
350
E
  3
ACAD_SCALELIST
350
47
  3
DWGPROPS
350
12C
  0
DICTIONARY
  5
D
102
{ACAD_REACTORS
330
C
102
}
330
C
100
AcDbDictionary
281
     1
  0
DICTIONARY
  5
1A
102
{ACAD_REACTORS
330
C
102
}
330
C
100
AcDbDictionary
281
     1
  3
Layout1
350
1E
  3
Layout2
350
26
  3
Model
350
22
  0
DICTIONARY
  5
17
102
{ACAD_REACTORS
330
C
102
}
330
C
100
AcDbDictionary
281
     1
  3
Standard
350
18
  0
DICTIONARY
  5
19
102
{ACAD_REACTORS
330
C
102
}
330
C
100
AcDbDictionary
281
     1
  0
ACDBDICTIONARYWDFLT
  5
E
102
{ACAD_REACTORS
330
C
102
}
330
C
100
AcDbDictionary
281
     1
  3
Normal
350
F
100
AcDbDictionaryWithDefault
340
F
  0
DICTIONARY
  5
47
102
{ACAD_REACTORS
330
C
102
}
330
C
100
AcDbDictionary
281
     1
  3
A0
350
48
  3
A1
350
49
  3
A2
350
4A
  3
A3
350
4B
  3
A4
350
4C
  3
A5
350
4D
  3
A6
350
4E
  3
A7
350
4F
  3
A8
350
50
  3
A9
350
51
  3
B0
350
52
  3
B1
350
53
  3
B2
350
54
  3
B3
350
55
  3
B4
350
56
  3
B5
350
57
  3
B6
350
58
  3
B7
350
59
  3
B8
350
5A
  3
B9
350
5B
  3
C0
350
5C
  3
C1
350
5D
  3
C2
350
5E
  3
C3
350
5F
  3
C4
350
60
  3
C5
350
61
  3
C6
350
62
  3
C7
350
63
  3
C8
350
64
  3
C9
350
65
  3
D0
350
66
  3
D1
350
67
  3
D2
350
68
  0
XRECORD
  5
12C
102
{ACAD_REACTORS
330
C
102
}
330
C
100
AcDbXrecord
280
     1
  1
DWGPROPS COOKIE
  2

  3

  4

  6

  7

  8
b.kav
  9

300
=
301
=
302
=
303
=
304
=
305
=
306
=
307
=
308
=
309
=
 40
0.0
 41
2460346.545699294
 42
2460346.545699572
  1

 90
        0
  0
LAYOUT
  5
1E
102
{ACAD_REACTORS
330
1A
102
}
330
1A
100
AcDbPlotSettings
  1

  2
none_device
  4

  6

 40
0.0
 41
0.0
 42
0.0
 43
0.0
 44
0.0
 45
0.0
 46
0.0
 47
0.0
 48
0.0
 49
0.0
140
0.0
141
0.0
142
1.0
143
1.0
 70
   688
 72
     1
 73
     0
 74
     5
  7

 75
    16
147
1.0
148
0.0
149
0.0
100
AcDbLayout
  1
Layout1
 70
     1
 71
     1
 10
0.0
 20
0.0
 11
420.0
 21
297.0
 12
0.0
 22
0.0
 32
0.0
 14
1.0000000000E+20
 24
1.0000000000E+20
 34
1.0000000000E+20
 15
-1.0000000000E+20
 25
-1.0000000000E+20
 35
-1.0000000000E+20
146
0.0
 13
0.0
 23
0.0
 33
0.0
 16
1.0
 26
0.0
 36
0.0
 17
0.0
 27
1.0
 37
0.0
 76
     0
330
1B
  0
LAYOUT
  5
26
102
{ACAD_REACTORS
330
1A
102
}
330
1A
100
AcDbPlotSettings
  1

  2
none_device
  4

  6

 40
0.0
 41
0.0
 42
0.0
 43
0.0
 44
0.0
 45
0.0
 46
0.0
 47
0.0
 48
0.0
 49
0.0
140
0.0
141
0.0
142
1.0
143
1.0
 70
   688
 72
     1
 73
     0
 74
     5
  7

 75
    16
147
1.0
148
0.0
149
0.0
100
AcDbLayout
  1
Layout2
 70
     1
 71
     2
 10
0.0
 20
0.0
 11
0.0
 21
0.0
 12
0.0
 22
0.0
 32
0.0
 14
0.0
 24
0.0
 34
0.0
 15
0.0
 25
0.0
 35
0.0
146
0.0
 13
0.0
 23
0.0
 33
0.0
 16
1.0
 26
0.0
 36
0.0
 17
0.0
 27
1.0
 37
0.0
 76
     0
330
23
  0
LAYOUT
  5
22
102
{ACAD_REACTORS
330
1A
102
}
330
1A
100
AcDbPlotSettings
  1

  2
none_device
  4
Letter_(8.50_x_11.00_Inches)
  6

 40
6.35
 41
6.35
 42
6.35000508
 43
6.35000508
 44
215.9
 45
279.4
 46
0.0
 47
0.0
 48
0.0
 49
0.0
140
0.0
141
0.0
142
1.0
143
1.0
 70
  1712
 72
     1
 73
     0
 74
     0
  7

 75
     0
147
1.0
148
0.0
149
0.0
100
AcDbLayout
  1
Model
 70
     1
 71
     0
 10
0.0
 20
0.0
 11
279.4
 21
215.9
 12
0.0
 22
0.0
 32
0.0
 14
0.0
 24
0.0
 34
0.0
 15
279.4
 25
215.9
 35
0.0
146
0.0
 13
0.0
 23
0.0
 33
0.0
 16
1.0
 26
0.0
 36
0.0
 17
0.0
 27
1.0
 37
0.0
 76
     0
330
1F
331
29
  0
MLINESTYLE
  5
18
102
{ACAD_REACTORS
330
17
102
}
330
17
100
AcDbMlineStyle
  2
Standard
 70
     0
  3

 62
   256
 51
90.0
 52
90.0
 71
     2
 49
0.5
 62
   256
  6
BYLAYER
 49
-0.5
 62
   256
  6
BYLAYER
  0
ACDBPLACEHOLDER
  5
F
102
{ACAD_REACTORS
330
E
102
}
330
E
  0
SCALE
  5
48
102
{ACAD_REACTORS
330
47
102
}
330
47
100
AcDbScale
 70
     0
300
1:1
140
1.0
141
1.0
290
     1
  0
SCALE
  5
49
102
{ACAD_REACTORS
330
47
102
}
330
47
100
AcDbScale
 70
     0
300
1:2
140
1.0
141
2.0
290
     0
  0
SCALE
  5
4A
102
{ACAD_REACTORS
330
47
102
}
330
47
100
AcDbScale
 70
     0
300
1:4
140
1.0
141
4.0
290
     0
  0
SCALE
  5
4B
102
{ACAD_REACTORS
330
47
102
}
330
47
100
AcDbScale
 70
     0
300
1:5
140
1.0
141
5.0
290
     0
  0
SCALE
  5
4C
102
{ACAD_REACTORS
330
47
102
}
330
47
100
AcDbScale
 70
     0
300
1:8
140
1.0
141
8.0
290
     0
  0
SCALE
  5
4D
102
{ACAD_REACTORS
330
47
102
}
330
47
100
AcDbScale
 70
     0
300
1:10
140
1.0
141
10.0
290
     0
  0
SCALE
  5
4E
102
{ACAD_REACTORS
330
47
102
}
330
47
100
AcDbScale
 70
     0
300
1:16
140
1.0
141
16.0
290
     0
  0
SCALE
  5
4F
102
{ACAD_REACTORS
330
47
102
}
330
47
100
AcDbScale
 70
     0
300
1:20
140
1.0
141
20.0
290
     0
  0
SCALE
  5
50
102
{ACAD_REACTORS
330
47
102
}
330
47
100
AcDbScale
 70
     0
300
1:30
140
1.0
141
30.0
290
     0
  0
SCALE
  5
51
102
{ACAD_REACTORS
330
47
102
}
330
47
100
AcDbScale
 70
     0
300
1:40
140
1.0
141
40.0
290
     0
  0
SCALE
  5
52
102
{ACAD_REACTORS
330
47
102
}
330
47
100
AcDbScale
 70
     0
300
1:50
140
1.0
141
50.0
290
     0
  0
SCALE
  5
53
102
{ACAD_REACTORS
330
47
102
}
330
47
100
AcDbScale
 70
     0
300
1:100
140
1.0
141
100.0
290
     0
  0
SCALE
  5
54
102
{ACAD_REACTORS
330
47
102
}
330
47
100
AcDbScale
 70
     0
300
2:1
140
2.0
141
1.0
290
     0
  0
SCALE
  5
55
102
{ACAD_REACTORS
330
47
102
}
330
47
100
AcDbScale
 70
     0
300
4:1
140
4.0
141
1.0
290
     0
  0
SCALE
  5
56
102
{ACAD_REACTORS
330
47
102
}
330
47
100
AcDbScale
 70
     0
300
8:1
140
8.0
141
1.0
290
     0
  0
SCALE
  5
57
102
{ACAD_REACTORS
330
47
102
}
330
47
100
AcDbScale
 70
     0
300
10:1
140
10.0
141
1.0
290
     0
  0
SCALE
  5
58
102
{ACAD_REACTORS
330
47
102
}
330
47
100
AcDbScale
 70
     0
300
100:1
140
100.0
141
1.0
290
     0
  0
SCALE
  5
59
102
{ACAD_REACTORS
330
47
102
}
330
47
100
AcDbScale
 70
     0
300
1/128" = 1'-0"
140
0.0078125
141
12.0
290
     0
  0
SCALE
  5
5A
102
{ACAD_REACTORS
330
47
102
}
330
47
100
AcDbScale
 70
     0
300
1/64" = 1'-0"
140
0.015625
141
12.0
290
     0
  0
SCALE
  5
5B
102
{ACAD_REACTORS
330
47
102
}
330
47
100
AcDbScale
 70
     0
300
1/32" = 1'-0"
140
0.03125
141
12.0
290
     0
  0
SCALE
  5
5C
102
{ACAD_REACTORS
330
47
102
}
330
47
100
AcDbScale
 70
     0
300
1/16" = 1'-0"
140
0.0625
141
12.0
290
     0
  0
SCALE
  5
5D
102
{ACAD_REACTORS
330
47
102
}
330
47
100
AcDbScale
 70
     0
300
3/32" = 1'-0"
140
0.09375
141
12.0
290
     0
  0
SCALE
  5
5E
102
{ACAD_REACTORS
330
47
102
}
330
47
100
AcDbScale
 70
     0
300
1/8" = 1'-0"
140
0.125
141
12.0
290
     0
  0
SCALE
  5
5F
102
{ACAD_REACTORS
330
47
102
}
330
47
100
AcDbScale
 70
     0
300
3/16" = 1'-0"
140
0.1875
141
12.0
290
     0
  0
SCALE
  5
60
102
{ACAD_REACTORS
330
47
102
}
330
47
100
AcDbScale
 70
     0
300
1/4" = 1'-0"
140
0.25
141
12.0
290
     0
  0
SCALE
  5
61
102
{ACAD_REACTORS
330
47
102
}
330
47
100
AcDbScale
 70
     0
300
3/8" = 1'-0"
140
0.375
141
12.0
290
     0
  0
SCALE
  5
62
102
{ACAD_REACTORS
330
47
102
}
330
47
100
AcDbScale
 70
     0
300
1/2" = 1'-0"
140
0.5
141
12.0
290
     0
  0
SCALE
  5
63
102
{ACAD_REACTORS
330
47
102
}
330
47
100
AcDbScale
 70
     0
300
3/4" = 1'-0"
140
0.75
141
12.0
290
     0
  0
SCALE
  5
64
102
{ACAD_REACTORS
330
47
102
}
330
47
100
AcDbScale
 70
     0
300
1" = 1'-0"
140
1.0
141
12.0
290
     0
  0
SCALE
  5
65
102
{ACAD_REACTORS
330
47
102
}
330
47
100
AcDbScale
 70
     0
300
1-1/2" = 1'-0"
140
1.5
141
12.0
290
     0
  0
SCALE
  5
66
102
{ACAD_REACTORS
330
47
102
}
330
47
100
AcDbScale
 70
     0
300
3" = 1'-0"
140
3.0
141
12.0
290
     0
  0
SCALE
  5
67
102
{ACAD_REACTORS
330
47
102
}
330
47
100
AcDbScale
 70
     0
300
6" = 1'-0"
140
6.0
141
12.0
290
     0
  0
SCALE
  5
68
102
{ACAD_REACTORS
330
47
102
}
330
47
100
AcDbScale
 70
     0
300
1'-0" = 1'-0"
140
12.0
141
12.0
290
     0
  0
ENDSEC
  0
EOF
